Oops, an error
Loading. Please wait.

God Gave Me Everything Bass Tab

version 2
version 2

Whole song

Interactive

2,531 views 6 this week
no commentswrite comment
1 2 3 4 5
3 more votes to show rating
add to favorites
launch autoscroll
font size
0
reset
guitar tuner
Autoscroll
slow
fast
+/-
esc
set tempo
stop
Help us to improve Ultimate-Guitar.com Take our survey!
×
Author
-------------------------------------------------------------------------------
			     God Gave Me Everything - Mick Jagger
-------------------------------------------------------------------------------

Tabbed By : Mark Spivey

Tuning: EADG

(00:00)
G|-----------------------------------------------------------------|
D|-----------------------------------------------------------------|
A|-4-4-4-4-4-4-4-4-7-7-7-7-7-7-7-7---------------------------------|
E|---------------------------------5-5-5-5-5-5-5-5-2-2-2-2-2-2-2-2-| x2

(00:15)
G|-----------------------------------------------------------------|
D|-----------------------------------------------------------------|
A|-4-4-4-4-4-4-4-4-7-7-7-7-7-7-7-7-2-2-2-2-2-2-2-2-----------------|
E|-------------------------------------------------5-5-5-5-5-5-5-5-| x4

(00:45)
G|-----------------------------------------------------------------|
D|-----------------------------------------------------------------|
A|-4-4-4-4-4-4-4-4-7-7-7-7-7-7-7-7---------------------------------|
E|---------------------------------5-5-5-5-5-5-5-5-2-2-2-2-2-2-2-2-| x2

(01:00)
G|-----------------------------------------------------------------|
D|-----------------------------------------------------------------|
A|-4-4-4-4-4-4-4-4-7-7-7-7-7-7-7-7-2-2-2-2-2-2-2-2-----------------|
E|-------------------------------------------------5-5-5-5-5-5-5-5-| x4

(01:29)
G|-----------------------------------------------------------------|
D|-----------------------------------------------------------------|
A|-4-4-4-4-4-4-4-4-7-7-7-7-7-7-7-7---------------------------------|
E|---------------------------------5-5-5-5-5-5-5-5-2-2-2-2-2-2-2-2-| x4

(02:00)
G|-----------------------------------------------------------------|
D|-----------------------------------------------------------------|
A|-2-2-2-2-2-2-2-2-2-2-2-2-2-2-2-2---------------------------------|
E|---------------------------------5-5-5-5-5-5-5-5-5-5-5-5-5-5-5-5-| x2

(02:14)
G|-----------------------------------------------------------------|
D|-----------------------------------------------------------------|
A|-4-4-4-4-4-4-4-4-7-7-7-7-7-7-7-7-2-2-2-2-2-2-2-2-----------------|
E|-------------------------------------------------5-5-5-5-5-5-5-5-| x2

(02:29)
G|-----------------------------------------------------------------|
D|-----------------------------------------------------------------|
A|-4-4-4-4-4-4-4-4-7-7-7-7-7-7-7-7---------------------------------|
E|---------------------------------5-5-5-5-5-5-5-5-2-2-2-2-2-2-2-2-| x8

(03:29)
G|---------------------------------|
D|---------------------------------|
A|-4-4-4-4-4-4-4-4-7-7-7-7-7-7-7-7-|
E|---------------------------------| Fade

| /  slide up
| \  slide down
| h  hammer-on
| p  pull-off
| ~  vibrato
| +  harmonic
| x  Mute note
===============================================================================
Suggest correction
Give kudos to tab author, rate the tab!
1 2 3 4 5
comments
print report bad tab
guest
You may want to rate the tab now too:
select rating
Wanna post a correction for this tab? Suggest correction