Oops, an error
Loading. Please wait.

Visions Of Paradise Tab

34 views 1 this week
no commentswrite comment
1 2 3 4 5
2 more votes to show rating
add to favorites
launch autoscroll
font size
0
reset
how to read this tab
guitar tuner
Autoscroll
slow
fast
+/-
esc
set tempo
stop
Help us to improve Ultimate-Guitar.com Take our survey!
×
Author
Difficulty
novice
About this tab version
This is a complete version including the guitars and synths arrangements. Was this info helpful? Yes No
[Intro]
Two guitars clean. Probably a Telecaster.

   F                                        Bb
e|-1-----------------------1----------------1--------------1-----------------|
B|-1-----------------------1----------------3--------------3-----------------|
G|-2-----------------------2----------------3--------------3-----------------|
D|-3-----------------------3----------------3--------------3-----------------|
A|-3-----------------------3----------------1--------------1-----------------|
E|-1-----------------------1-------------------------------------------------|
   F                                        Bb
e|---------------1-------------------1---------------------------------------|
B|-3----1------------3------1-----------------3---1-----3---3---1---------3--|
G|----------2-------------------2--------------------3--------------3--------|
D|---------------------------------------------------------------------------|
A|---------------------------------------------------------------------------|
E|---------------------------------------------------------------------------|


[Verse 1]
   Don't tell me  when     something is      beautiful
   F                                        Bb
e|-1-----------------------1----------------1--------------1-----------------|
B|-1-----------------------1----------------3--------------3-----------------|
G|-2-----------------------2----------------3--------------3-----------------|
D|-3-----------------------3----------------3--------------3-----------------|
A|-3-----------------------3----------------1--------------1-----------------|
E|-1-----------------------1-------------------------------------------------|
   F                                        Bb
e|---------------1-------------------1---------------------------------------|
B|-3----1------------3------1-----------------3---1-----3---3---1---------3--|
G|----------2-------------------2--------------------3--------------3--------|
D|---------------------------------------------------------------------------|
A|---------------------------------------------------------------------------|
E|---------------------------------------------------------------------------|

    Don't tell me  how     to talk to my friends
   F                                        Bb
e|-1-----------------------1----------------1--------------1-----------------|
B|-1-----------------------1----------------3--------------3-----------------|
G|-2-----------------------2----------------3--------------3-----------------|
D|-3-----------------------3----------------3--------------3-----------------|
A|-3-----------------------3----------------1--------------1-----------------|
E|-1-----------------------1-------------------------------------------------|
   F                                        Bb
e|---------------1-------------------1---------------------------------------|
B|-3----1------------3------1-----------------3---1-----3---3---1---------3--|
G|----------2-------------------2--------------------3--------------3--------|
D|---------------------------------------------------------------------------|
A|---------------------------------------------------------------------------|
E|---------------------------------------------------------------------------|

 Just tell me the names of the stars in the skies                What's your favourite
   F                                        Bb                C
e|-1-----------------------1----------------1--------------------------------|
B|-1-----------------------1----------------3--------------------------------|
G|-2-----------------------2----------------3--------------------------------|
D|-3-----------------------3----------------3--------------------------------|
A|-3-----------------------3----------------1--------------------------------|
E|-1-----------------------1-------------------------------------------------|
   F                                        Bb
e|---------------1-------------------1------------------------0-----1--------|
B|-3----1------------3------1-----------------3---1-----3-------1-----1------|
G|----------2-------------------2--------------------3------------0-----0----|
D|---------------------------------------------------------------------------|
A|---------------------------------------------------------------------------|
E|---------------------------------------------------------------------------|

 Song and tell me the names of the lovers you had           Before I came along
   F                                        Bb                C
e|-1-----------------------1----------------1--------------------------------|
B|-1-----------------------1----------------3--------------------------------|
G|-2-----------------------2----------------3--------------------------------|
D|-3-----------------------3----------------3--------------------------------|
A|-3-----------------------3----------------1--------------------------------|
E|-1-----------------------1-------------------------------------------------|
   F                                        Bb
e|---------------1-------------------1------------------------0-----1--------|
B|-3----1------------3------1-----------------3---1-----3-------1-----1------|
G|----------2-------------------2--------------------3------------0-----0----|
D|---------------------------------------------------------------------------|
A|---------------------------------------------------------------------------|
E|---------------------------------------------------------------------------|

[Chorus 1]

Two Distortion guitars (5th chords)

  Don't put your arms around me                                           and
  F              B
e|---------------------------------------------------------------------------|
B|---------------------------------------------------------------------------|
G|---------------3---------3-------------------------------------------------|
D|3-----3--------3---------3-------------------------------------------------|
A|3-----3--------1---------1-------------------------------------------------|
E|1-----1--------------------------------------------------------------------|

  F              B
e|---------------------------------------------------------------------------|
B|---------------------------------------------------------------------------|
G|---------------3---------3-------------------------------------------------|
D|3-----3--------3---------3-------------------------------------------------|
A|3-----3--------1---------1-------------------------------------------------|
E|1-----1--------------------------------------------------------------------|

  Don't hold me tight                                                     cause
  F                 Dm                         F                            F
e|---------------------------------------------------------------------------|
B|---------------------------------------------------------------------------|
G|-------------------7---------7---------------------------------------------|
D|3-----3------------7---------7---------------3-----------------------------|
A|3-----3------------5---------5---------------3-----------------------------|
E|1-----1--------------------------------------1 -----------------------------|

e|---------------------5-----5------5------5-----5-----5---------------------|
B|----------------------6------6------6------6-----6-----6-------------------|
G|-----------------------7-------7-------------5-----5-----------------------|
D|3-----3--------------------------------------------------------------------|
A|3-----3--------------------------------------------------------------------|
E|1-----1--------------------------------------------------------------------|

  I could get use to your vision of paradise
  B           B                     C                           C
e|---------------------------------------------------------------------------|
B|---------------------------------------------------------------------------|
G|3-----------3---------------------5----------------------------------------|
D|3-----------3---------------------5----------------------------------------|
A|1-----------1---------------------3----------------------------------------|
E|---------------------------------------------------------------------------|

e|---------------------------------------------------------------------------|
B|-----------------------------------------5b--5/3---------------5-5v----xx5x|
G|3-----------3-------------------------------------(3)/5vvvv----5-5v----xx5x|
D|3-----------3----------------------------------------------------------xxxx|
A|1-----------1--------------------------------------------------------------|
E|---------------------------------------------------------------------------|



[Verse 2] With a 3rd Guitar
   Don't ask me where all of the pain     goes
   F                                        Bb
e|-1-----------------------1----------------1--------------1-----------------|
B|-1-----------------------1----------------3--------------3-----------------|
G|-2-----------------------2----------------3--------------3-----------------|
D|-3-----------------------3----------------3--------------3-----------------|
A|-3-----------------------3----------------1--------------1-----------------|
E|-1-----------------------1-------------------------------------------------|
   F                                        Bb
e|---------------1-------------------1---------------------------------------|
B|-3----1------------3------1-----------------3---1-----3---3---1---------3--|
G|----------2-------------------2--------------------3--------------3--------|
D|---------------------------------------------------------------------------|
A|---------------------------------------------------------------------------|
E|---------------------------------------------------------------------------|

e|---------------------------------------------------------------------------|
B|---------------------------------------------------------------------------|
G|---------------------------------------------------------------------------|
D|---------------------------------------------------------------------------|
A|---------------------------------------------------------------------------|
E|---------------------------------------------------------------------------|

    cause you make me feel i don't know myself
   F                                        Bb
e|-1-----------------------1----------------1--------------1-----------------|
B|-1-----------------------1----------------3--------------3-----------------|
G|-2-----------------------2----------------3--------------3-----------------|
D|-3-----------------------3----------------3--------------3-----------------|
A|-3-----------------------3----------------1--------------1-----------------|
E|-1-----------------------1-------------------------------------------------|

   F                                        Bb
e|---------------1-------------------1---------------------------------------|
B|-3----1------------3------1-----------------3---1-----3---3---1---------3--|
G|----------2-------------------2--------------------3--------------3--------|
D|---------------------------------------------------------------------------|
A|---------------------------------------------------------------------------|
E|---------------------------------------------------------------------------|
        
   F                                        Bb             
e|---------------------------------------------------------------------------|
B|-----------------------------------------------------------<5>vvv----------|
G|---------------------------------------------------------------------------|
D|---------------------------------------------------------------------------|
A|---------------------------------------------------------------------------|
E|---------------------------------------------------------------------------|

 You say that you wan t me forever and I         say love is no crime
   F                                        Bb                C
e|-1-----------------------1----------------1--------------------------------|
B|-1-----------------------1----------------3--------------------------------|
G|-2-----------------------2----------------3--------------------------------|
D|-3-----------------------3----------------3--------------------------------|
A|-3-----------------------3----------------1--------------------------------|
E|-1-----------------------1-------------------------------------------------|
   F                                        Bb
e|---------------1-------------------1------------------------0-----1--------|
B|-3----1------------3------1-----------------3---1-----3-------1-----1------|
G|----------2-------------------2--------------------3------------0-----0----|
D|---------------------------------------------------------------------------|
A|---------------------------------------------------------------------------|
E|---------------------------------------------------------------------------|

e|---------------------------------------------------------------------------|
B|----------5-----------5/6------/5----------/3------------------------------|
G|---------------------------------------------------------------------------|
D|---------------------------------------------------------------------------|
A|---------------------------------------------------------------------------|
E|---------------------------------------------------------------------------|

 So tell me the name of the children we'll have at the end of the line
   F                                        Bb                C
e|-1-----------------------1----------------1--------------------------------|
B|-1-----------------------1----------------3--------------------------------|
G|-2-----------------------2----------------3--------------------------------|
D|-3-----------------------3----------------3--------------------------------|
A|-3-----------------------3----------------1--------------------------------|
E|-1-----------------------1-------------------------------------------------|
   F                                        Bb
e|---------------1-------------------1------------------------0-----1--------|
B|-3----1------------3------1-----------------3---1-----3-------1-----1------|
G|----------2-------------------2--------------------3------------0-----0----|
D|---------------------------------------------------------------------------|
A|---------------------------------------------------------------------------|
E|---------------------------------------------------------------------------|

e|---------------------------------------------------------------------------|
B|----------/8-----------/6/5------/10---------------------------------------|
G|---------------------------------------------------------------------------|
D|---------------------------------------------------------------------------|
A|---------------------------------------------------------------------------|
E|---------------------------------------------------------------------------|

[Chorus 2]

Two Distortion guitars (5th chords)

  Don't put your arms around me                                           and
  F              B
e|---------------------------------------------------------------------------|
B|---------------------------------------------------------------------------|
G|---------------3---------3-------------------------------------------------|
D|3-----3--------3---------3-------------------------------------------------|
A|3-----3--------1---------1-------------------------------------------------|
E|1-----1--------------------------------------------------------------------|

  F              B
e|---------------------------------------------------------------------------|
B|---------------------------------------------------------------------------|
G|---------------3---------3-------------------------------------------------|
D|3-----3--------3---------3-------------------------------------------------|
A|3-----3--------1---------1-------------------------------------------------|
E|1-----1--------------------------------------------------------------------|

  Don't hold me tight                                                     cause
  F                 Dm                         F                            F
e|---------------------------------------------------------------------------|
B|---------------------------------------------------------------------------|
G|-------------------7---------7---------------------------------------------|
D|3-----3------------7---------7---------------3-----------------------------|
A|3-----3------------5---------5---------------3-----------------------------|
E|1-----1--------------------------------------1 ----------------------------|

e|---------------------5-----5------5------5-----5-----5---------------------|
B|----------------------6------6------6------6-----6-----6-------------------|
G|-----------------------7-------7-------------5-----5-----------------------|
D|3-----3--------------------------------------------------------------------|
A|3-----3--------------------------------------------------------------------|
E|1-----1--------------------------------------------------------------------|

  I could get use to your vision of paradise
  B           B                     C                           C
e|---------------------------------------------------------------------------|
B|---------------------------------------------------------------------------|
G|3-----------3---------------------5----------------------------------------|
D|3-----------3---------------------5----------------------------------------|
A|1-----------1---------------------3----------------------------------------|
E|---------------------------------------------------------------------------|

  B           B                     C                           C
e|---------------------------------------------------------------------------|
B|-------------------------------------10-12-13--10-12-13--13----------------|
G|3-----------3--------------------------------------------------------------|
D|3-----------3--------------------------------------------------------------|
A|1-----------1--------------------------------------------------------------|
E|---------------------------------------------------------------------------|

  B           B                     C                           C
e|---------------------------------------------------------------------------|
B|---------------------------------------------------------------------------|
G|--------------------------------------------------------9h10p9-9h10p9------|
D|-------------------------------------------------------------10-----10-x-10|
A|---------------------------------------------------------------------------|
E|---------------------------------------------------------------------------|

  Don't let me near the garden                                           of
  F              B
e|---------------------------------------------------------------------------|
B|---------------------------------------------------------------------------|
G|---------------3---------3-------------------------------------------------|
D|3-----3--------3---------3-------------------------------------------------|
A|3-----3--------1---------1-------------------------------------------------|
E|1-----1--------------------------------------------------------------------|

  F              B
e|---------------------------------------------------------------------------|
B|---------------------------------------------------------------------------|
G|---------------3---------3-------------------------------------------------|
D|3-----3--------3---------3-------------------------------------------------|
A|3-----3--------1---------1-------------------------------------------------|
E|1-----1--------------------------------------------------------------------|

  early        delights                                                 cause
  F                 Dm                         F                            F
e|---------------------------------------------------------------------------|
B|---------------------------------------------------------------------------|
G|-------------------7---------7---------------------------------------------|
D|3-----3------------7---------7---------------3-----------------------------|
A|3-----3------------5---------5---------------3-----------------------------|
E|1-----1--------------------------------------1 ----------------------------|

e|---------------------5-----5------5------5-----5-----5---------------------|
B|----------------------6------6------6------6-----6-----6-------------------|
G|-----------------------7-------7-------------5-----5-----------------------|
D|3-----3--------------------------------------------------------------------|
A|3-----3--------------------------------------------------------------------|
E|1-----1--------------------------------------------------------------------|

  I could get use to your vision of paradise
  B           B                     C                           C
e|---------------------------------------------------------------------------|
B|---------------------------------------------------------------------------|
G|3-----------3---------------------5----------------------------------------|
D|3-----------3---------------------5----------------------------------------|
A|1-----------1---------------------3----------------------------------------|
E|---------------------------------------------------------------------------|

  B           B                     C                           C
e|---------------------------------------------------------------------------|
B|-------------------------------------10-12-13--10-12-13--13----------------|
G|3-----------3--------------------------------------------------------------|
D|3-----------3--------------------------------------------------------------|
A|1-----------1--------------------------------------------------------------|
E|---------------------------------------------------------------------------|

  B           B                     C                           C
e|--------------------------------------------------------------------------------|
B|-----------------------------------------------------------/6---/5--/3----------|
G|---------------------------------------------------------------------------/5vv-|
D|--------------------------------------------------------------------------------|
A|--------------------------------------------------------------------------------|
E|--------------------------------------------------------------------------------|

  of paradise                    of paradise
  B           B                  C                             C                 
e|---------------------------------------------------------------------------|
B|---------------------------------------------------------------------------|
G|3-----------3--------------------------------------------------------------|
D|3-----------3--------------------------------------------------------------|
A|1-----------1--------------------------------------------------------------|
E|---------------------------------------------------------------------------|

  B           B                     C                           C
e|--------------------------10-----------------------------------------------|
B|10-12-13--10-12-13--10-12----13-----------10-12-13--10-12-13--13-----------|
G|---------------------------------------------------------------------------|
D|---------------------------------------------------------------------------|
A|---------------------------------------------------------------------------|
E|---------------------------------------------------------------------------|

  B           B                     C                           C
e|--------------------------------------------------------------------------------|
B|/6---/5--/3------------------------------------------------/6---/5--/3----------|
G|---------------------------------------------------------------------------/5vv-|
D|--------------------------------------------------------------------------------|
A|--------------------------------------------------------------------------------|
E|--------------------------------------------------------------------------------|


[Bridge]

This part is tricky some strings with some power chord in a synth
It goes: Dm Bb Dm Bb Gm C

  Just use your heart not your head
  Dm                           Bb
e|---------------------------------------------------------------------------|
B|---------------------------------------------------------------------------|
G|-(7)-------------------------(3)-------------------------------------------|
D|-(7)-------------------------(3)-------------------------------------------|
A|-(5)-------------------------(1)-------------------------------------------|
E|---------------------------------------------------------------------------|
  Dm                           Bb
e|-------5--------------5---------------3------------------------------------|
B|-3-5-6--6-5-6---3-5-6--6-5-6----3-5-6---6-5-6----5vvv----6h5h3vvv----------|
G|---------------------------------------------------------------------------|
D|---------------------------------------------------------------------------|
A|---------------------------------------------------------------------------|
E|---------------------------------------------------------------------------|

  While I fall apart in my bed                   
  Dm                           Bb
e|---------------------------------------------------------------------------|
B|---------------------------------------------------------------------------|
G|-(7)-------------------------(3)-------------------------------------------|
D|-(7)-------------------------(3)-------------------------------------------|
A|-(5)-------------------------(1)-------------------------------------------|
E|---------------------------------------------------------------------------|
  Dm                           Bb
e|-------5--------------5---------------3------------------------------------|
B|-3-5-6--6-5-6---3-5-6--6-5-6----3-5-6---6-5-6----5vvv----6h5h3vvv----------|
G|---------------------------------------------------------------------------|
D|---------------------------------------------------------------------------|
A|---------------------------------------------------------------------------|
E|---------------------------------------------------------------------------|

  I find myself aching for you          I feel myself breaking in two
  Gm                                    C
e|---------------------------------------------------------------------------|
B|---------------------------------------------------------------------------|
G|-------------------------------------(5)-----------------------------------|
D|-(5)---------------------------------(5)-----------------------------------|
A|-(5)---------------------------------(3)-----------------------------------|
E|-(3)-----------------------------------------------------------------------|

  Don't build your world around me                                      
  F              B
e|---------------------------------------------------------------------------|
B|---------------------------------------------------------------------------|
G|---------------3---------3-------------------------------------------------|
D|3-----3--------3---------3-------------------------------------------------|
A|3-----3--------1---------1-------------------------------------------------|
E|1-----1--------------------------------------------------------------------|

  F              B
e|---------------------------------------------------------------------------|
B|---------------------------------------------------------------------------|
G|---------------3---------3-------------------------------------------------|
D|3-----3--------3---------3-------------------------------------------------|
A|3-----3--------1---------1-------------------------------------------------|
E|1-----1--------------------------------------------------------------------|

  and don't hold me tight                                               cause
  F                 Dm                         F                            F
e|---------------------------------------------------------------------------|
B|---------------------------------------------------------------------------|
G|-------------------7---------7---------------------------------------------|
D|3-----3------------7---------7---------------3-----------------------------|
A|3-----3------------5---------5---------------3-----------------------------|
E|1-----1--------------------------------------1 ----------------------------|

e|---------------------5-----5------5------5-----5-----5---------------------|
B|----------------------6------6------6------6-----6-----6-------------------|
G|-----------------------7-------7-------------5-----5-----------------------|
D|3-----3--------------------------------------------------------------------|
A|3-----3--------------------------------------------------------------------|
E|1-----1--------------------------------------------------------------------|

  I could get use to your vision of paradise
  B           B                     C                           C
e|---------------------------------------------------------------------------|
B|---------------------------------------------------------------------------|
G|3-----------3---------------------5----------------------------------------|
D|3-----------3---------------------5----------------------------------------|
A|1-----------1---------------------3----------------------------------------|
E|---------------------------------------------------------------------------|

  B           B                     C                           C
e|---------------------------------------------------------------------------|
B|-------------------------------------10-12-13--10-12-13--13----------------|
G|3-----------3--------------------------------------------------------------|
D|3-----------3--------------------------------------------------------------|
A|1-----------1--------------------------------------------------------------|
E|---------------------------------------------------------------------------|

  B           B                     C                           C
e|--------------------------------------------------------------------------------|
B|-----------------------------------------------------------/6---/5--/3----------|
G|---------------------------------------------------------------------------/5vv-|
D|--------------------------------------------------------------------------------|
A|--------------------------------------------------------------------------------|
E|--------------------------------------------------------------------------------|

  of paradise                    of paradise
  B           B                  C                             C                 
e|---------------------------------------------------------------------------|
B|---------------------------------------------------------------------------|
G|3-----------3--------------------------------------------------------------|
D|3-----------3--------------------------------------------------------------|
A|1-----------1--------------------------------------------------------------|
E|---------------------------------------------------------------------------|

  B           B                     C                           C
e|--------------------------10-----------------------------------------------|
B|10-12-13--10-12-13--10-12----13-----------10-12-13--10-12-13--13-----------|
G|---------------------------------------------------------------------------|
D|---------------------------------------------------------------------------|
A|---------------------------------------------------------------------------|
E|---------------------------------------------------------------------------|

  B           B                     C                           C
e|--------------------------------------------------------------------------------|
B|/6---/5--/3------------------------------------------------/6---/5--/3----------|
G|---------------------------------------------------------------------------/5vv-|
D|--------------------------------------------------------------------------------|
A|--------------------------------------------------------------------------------|
E|--------------------------------------------------------------------------------|

Fades Out

Regards from Argentina!
Tintinvox!




************************************

| x   Dead note
| g   Grace note
| (n) Ghost note
| h   Hammer-on
| p   Pull-off
| r   Release
| >   Accented note
| t   Tapping
| b   Bend
| br  Bend release
| pb  Pre-bend
| pbr Pre-bend release
| /   Slide up
| \   Slide down
| ~   Vibrato
| s   Slap
| P   Pop
| PM  Palm mute
| TR  Trill
| N   Tremolo

************************************
Suggest correction
Give kudos to tab author, rate the tab!
1 2 3 4 5
comments
print report bad tab
guest
You may want to rate the tab now too:
select rating
Wanna post a correction for this tab? Suggest correction