Oops, an error
Loading. Please wait.

Jane Fonda tab

version 1
version 1

Whole song

6,093 views 3 this week
3 commentsread comments
1 2 3 4 5
x 3
add to favorites
×
Save as Personal and add changes to this tab that will be seen only by you. Learn more ›
×
You can save this tab as Personal to edit and correct it or add notes. All changes will be seen only by you. Learn more »
launch autoscroll
font size
0
reset
how to read this tab
guitar tuner
edit
Autoscroll
slow
fast
+/-
esc
set tempo
stop
Difficulty
This is pretty much the whole song!
Also this is my first tab and i think its rite!!
Super easy and fun!!
Happy playing!

e]-------------------------------------------------------------------------|
B]--10~~--12-10~!--12-10-7---------------------10-(start over)-------------|
G]----------------------10-8~~--11-9~~---11-9------------------------------|
D]-------------------------------------------------------------------------|
A]-------------------------------------------------------------------------|
E]-------------------------------------------------------------------------|

            
            
Suggest correction
Creating personal tab
Creating personal tab
You can edit any tab online and save it as your Personal.

You can edit, replace or remove any tab part or add personal notes – all changes will be seen only by you.

Personal tabs can be accessed anytime from any device, even offline.
Learn more »
Give kudos to tab author, rate the tab!
1 2 3 4 5
comments
print report bad tab
3 comments total.
0 reply
speedylocs 21 Mar 30, 2008 01:33 PM

e]-------------------------------------------------------------------------|
B]--10~~--12-10~!--12-10-7---------------------10--------------------------|
G]----------------------11-9~~--11-9~~---11-9------------------------------|
D]-------------------------------------------------------------------------|
A]-------------------------------------------------------------------------|
E]-------------------------------------------------------------------------|

really close try this out

0 reply
scheutz 16 Jun 25, 2009 04:16 PM

if you listen close to the 6th,7th,8th note you can hear that they change one half step every note and as 7 on B string is the same as 11 on the G string thats not possible. Therefor:

e]-------------------------------------------------------------------------|
B]--10~~--12-10~!--12-10-7----------------------10--------------------------|
G]-------------------------10-9~~--11-9~~---11-9------------------------------|
D]-------------------------------------------------------------------------|
A]-------------------------------------------------------------------------|
E]-------------------------------------------------------------------------|

you can hear it even closer if you move all the stuff to e string

good luck

0 reply
Jmoarguitar 239 Nov 02, 2009 02:08 PM

e]-----------------------------------------------------|
B]--10~~--12-10~--12-10-7-------------------------10---|
G]-------------------------10-9~---11-9~-11-9---9------|
D]-------------------------------11-----------11-------|
A]-----------------------------------------------------|
E]-----------------------------------------------------|

i'm positive the notes i added are in there, but they are very subtle, i believe this makes the riff flow better and sound better imo.

guest
Wanna post a correction for this tab? Suggest correction