Oops, an error
Loading. Please wait.

Jane Fonda tab

version 2
version 2

Whole song

4,886 views 1 this week
2 commentsread comments
1 2 3 4 5
x 7
add to favorites
×
Save as Personal and add changes to this tab that will be seen only by you. Learn more ›
×
You can save this tab as Personal to edit and correct it or add notes. All changes will be seen only by you. Learn more »
launch autoscroll
font size
0
reset
how to read this tab
guitar tuner
edit
Autoscroll
slow
fast
+/-
esc
set tempo
stop
Author
Difficulty
------------------------------------------------------------------------------
                   JANE FONDA - Mickey Avalon
-------------------------------------------------------------------------------
Tabbed by: xconnrprx
Email: Strumbum99@aol.com

Tuning: eADGBE

this should be exact
Power chords on rythm guitar repeat like this the whole time
e|-----------------------------------------------------------------------------|
B|-----------------------------------------------------------------------------|
G|-----------------------------------------------------------------------------|
D|---7-7-7---7-7-7-------------------------------------------------------------|
A|---5-5-5---5-5-5----7-7-7---7-7-7--------------------------------------------|
E|---------------------5-5-5---5-5-5-------------------------------------------|

Lead guitar repeats like this the whole song
e|---5----7-5---7-5----------------------------------------------------------|
B|-------------------7-6-5-----7-5-------------------------------------------|
G|---------------------------------------------------------------------------|
D|---------------------------------------------------------------------------|
A|---------------------------------------------------------------------------|
E|---------------------------------------------------------------------------|

-Enjoy
Suggest correction
Creating personal tab
Creating personal tab
You can edit any tab online and save it as your Personal.

You can edit, replace or remove any tab part or add personal notes – all changes will be seen only by you.

Personal tabs can be accessed anytime from any device, even offline.
Learn more »
comments
print report bad tab
2 comments total.
0 reply
Paydrum91 31 Aug 24, 2008 11:53 PM

where are the chords?

0 reply
serenewolf 10 Dec 05, 2009 11:49 AM

Thanks for posting lead guitar :)

guest
You may want to rate the tab now too:
select rating
Wanna post a correction for this tab? Suggest correction