Oops, an error
Loading. Please wait.

My Dick tab

version 1
version 1

Whole song

Interactive

13,379 views 3 this week
3 commentsread comments
1 2 3 4 5
x 3
add to favorites
×
Save as Personal and add changes to this tab that will be seen only by you. Learn more ›
×
You can save this tab as Personal to edit and correct it or add notes. All changes will be seen only by you. Learn more »
launch autoscroll
font size
0
reset
how to read this tab
guitar tuner
edit
Autoscroll
slow
fast
+/-
esc
set tempo
stop
Author
Mickey Avalon
My Dick
Tabbed by Brasky
gamingology101@hotmail.com

|---------------------------------------------|
|---------------------------------------------|
|---------------------------------------------|
|---------------------------------------------|
|---------------------------------------------|
|---9-12-9-12-9-12-9-12-----5-8-5-8-5-8-5-8---|




Those are the basic notes figure out the rhythm yourself.

            
            
Suggest correction
Creating personal tab
Creating personal tab
You can edit any tab online and save it as your Personal.

You can edit, replace or remove any tab part or add personal notes – all changes will be seen only by you.

Personal tabs can be accessed anytime from any device, even offline.
Learn more »
Give kudos to tab author, rate the tab!
1 2 3 4 5
comments
print report bad tab
3 comments total.
+2 reply
shoe7ess 62 Nov 02, 2007 07:57 AM

Close...
You're second part is way off though.
Should go:


d|------------|
a|----7---7---|
E|-9---9---9-x| x2

then

a|----3---3--------3---2---
E|-2---2---2-x--2---2---2-x

just repeats from there

0 reply
speedylocs 21 Mar 30, 2008 01:29 PM

close but no cig

0 reply
jordanhornsby 10 Nov 19, 2008 12:18 PM

wow shitty mang

guest
You may want to rate the tab now too:
select rating
Wanna post a correction for this tab? Suggest correction