Oops, an error
Loading. Please wait.

My Dick Tab

version 3
version 3

Whole song

Interactive

25,104 views 48 this week
1 commentread comment
1 2 3 4 5
excellent!
x 6
add to favorites
launch autoscroll
font size
0
reset
how to read this tab
guitar tuner
Tab Pro tools
  • play this tab
  • loop segment
  • change instrument
  • show fretboard
  • metronome
Autoscroll
slow
fast
+/-
esc
set tempo
stop
Contributor
Difficulty
novice
Mickey Avalon
My Dick

Main Riff:


e|------------------------------------------------------------|
b|------------------------------------------------------------|
g|------------------------------------------------------------|
d|------------------------------------------------------------|
a|------------------------------------------------------------|
e|----9---12-9--12-9-----9---12-9--12-9-----------------------|

e|------------------------------------------------------------|
b|------------------------------------------------------------|
g|------------------------------------------------------------|
d|------------------------------------------------------------|
a|---------3-----3------------3-----3-------------------------|
e|----2------2-----2-----2------2-----2-----------------------|

and just repeat that throughout the whole song
comments
print report bad tab
1 comment total.
0 reply
XXploitXX wrote on October 19 2008, 04:09 am

at the part where it goes

d|
a|--------3-----3------3------3
E|--2------2-----2--2--=-2-------2


---------------------------------------------------------
it should go like this
d|-----------------------------------------------------------
a|---------3-----3-----------3-----2-------------------------
E|----2------2-----2--x--2-----2-----2--xxx muting this part while lightly holding the 2 fret

I want to post or [tab]
guest
You may want to rate the tab now too:
select rating
Please do not post tabs as comments. Select "correction" instead!