Oops, an error
Loading. Please wait.

Love Is Strange Tab

version 1
version 1

Solo

Interactive

145 views 12 this week
no commentswrite comment
1 2 3 4 5
3 more votes to show rating
add to favorites
launch autoscroll
font size
0
reset
how to read this tab
guitar tuner
Autoscroll
slow
fast
+/-
esc
set tempo
stop
Help us to improve Ultimate-Guitar.com Take our survey!
×
Author
Fairly easy solo, play around with it a little to get it to sound right to you.

Starts with the intro 

    C                F   G
e|-----------------------------|
b|-----------------------------|
g|--5-------5------------------|
D|----7-5-7---7-5--------------|
A|-----------------------------|
E|-----------------------------|

Then goes into the solo

e|---------------------------------------------------------------|
b|---------------------------------------------------------------|
g|-17--17--17--17-17-17-17----15-17---17-15----15----------------|
D|-------------------------17---------------17------15h17p15-----|
A|---------------------------------------------------------------|
E|---------------------------------------------------------------|

e|---------------------------------------------------------------|
b|---------------------------------------------------------------|
g|--------------15-17---------------------------------17---------|
D|-------15-17----------------------------------15-17------------|
A|-15-18----------------18b--15--18b-18b--15-18-----------18-15m-|
E|---------------------------------------------------------------|

e|------------11-13b---13-11-------------------14-13-12v---------|
b|--s13-13-13----------------13-----15-14-13v--------------------|
g|---------------------------------------------------------------|
D|---------------------------------------------------------------|
A|---------------------------------------------------------------|
E|---------------------------------------------------------------|

e|-------------14-13-12v--------------14-13-12v--------------11-13b---13-11-------|
b|--15-14-13v--------------15-14-13v---------------s13-13-13----------------13-11-|
g|--------------------------------------------------------------------------------|  END of SOLO
D|--------------------------------------------------------------------------------| 
A|--------------------------------------------------------------------------------|
E|--------------------------------------------------------------------------------|


h=hammer on
p=pull off
b=bend
v=vibrato
Suggest correction
Give kudos to tab author, rate the tab!
1 2 3 4 5
comments
print report bad tab
guest
You may want to rate the tab now too:
select rating
Wanna post a correction for this tab? Suggest correction