Oops, an error
Loading. Please wait.

Lullaby To Tim bass

19 views 1 this week
no commentswrite comment
1 2 3 4 5
3 more votes to show rating
add to favorites
×
Save as Personal and add changes to this tab that will be seen only by you. Learn more ›
×
You can save this tab as Personal to edit and correct it or add notes. All changes will be seen only by you. Learn more »
launch autoscroll
font size
0
reset
guitar tuner
edit
Autoscroll
slow
fast
+/-
esc
set tempo
stop
Tabbed by: 6METAL6BASSIST6
E-mail: petergriffinav@gmail.com

Tuning: BEADG

G|----------------------------------------------------------------|
D|4---------------------------------------------------------------|
A|----------------2---------------4-------------------------------| x2
E|----------------------------------------------------------------|
B|----------------------------------------------------------------|

0:11

G|----------------------------------------------------------------|
D|4-----------------------------------------------4---------------|
A|----------------2---------------4-------------------------------|
E|----------------------------------------------------------------|
B|----------------------------------------------------------------|

G|----------------------------------------------------------------|
D|------------------------------------------------4---------------|
A|----------------2---------------4-------------------------------|
E|2---------------------------------------------------------------|
B|----------------------------------------------------------------|

G|----------------------------------------------------------------|
D|3---------------------------------------------------------------|
A|-------------------------------------------------1--------------|
E|--------------------------------1-------------------------------|
B|----------------------------------------------------------------|

G|----------------------------------------------------------------|
D|4---------------------------------------------------------------|
A|----------------2---------------4-------------------------------|
E|----------------------------------------------------------------|
B|----------------------------------------------------------------|

G|----------------------------------------------------------------|
D|----------------------------------------------------------------|
A|2-------------------------------4-------------------------------|
E|----------------------------------------------------------------|
B|----------------------------------------------------------------|

0:38

G|----------------------------------------------------------------|
D|------------------------------------------------4---------------| x2
A|----------------2---------------4-------------------------------|
E|2---------------------------------------------------------------|
B|----------------------------------------------------------------|

G|----------------------------------------------------------------|
D|3-----------------------3---------------------------------------|
A|-------------------------------------------------1--------------|
E|--------------------------------1-------------------------------|
B|----------------------------------------------------------------|

G|----------------------------------------------------------------|
D|----------------------------------------------------------------|
A|----------------2---------------4-------------------------------|
E|2---------------------------------------------------------------|
B|----------------------------------------------------------------|

G|----------------------------------------------------------------|
D|4---------------------------------------------------------------|
A|----------------2-----------------------------------------------|
E|--------------------------------2-------------------------------|
B|----------------------------------------------------------------|

1:05

G|--------------------------------------------6-------------------|
D|------------6---------------------------6-----------------------|
A|--------6-----------------------4---4---------------------------|
E|4---4-----------------------------------------------------------|
B|----------------------------------------------------------------|

G|------------8---------------------------------------------------|
D|--------8-----------------------------------4-------------------|
A|6---6-----------------------------------4-----------------------|
E|--------------------------------2---2---------------------------|
B|----------------------------------------------------------------|

G|----------------------------------------------------------------|
D|------------6---------------------------------------------------|
A|--------6-----------------------2---2---------------------------|
E|4---4-----------------------------------2-----------------------|
B|--------------------------------------------0-------------------|

G|----------------------------------------------------------------|
D|----------------------------------------------------------------|
A|--------------------------------4---4---4---4---4---4---4---4---|
E|0---0-------0---0---0-------0-----------------------------------|
B|----------------------------------------------------------------|

G|--------------------------------|
D|--------------------------------|
A|4---4---4---4---4---4---4-------|
E|--------------------------------|
B|--------------------------------|

1:29

G|----------------------------------------------------------------|
D|----------------------------------------------------------------|
A|2-----------2-------------------4-----------4---4-----------4---| x2
E|----------------2-----------2-----------------------------------|
B|----------------------------------------------------------------|

1:40

G|----------------------------------------------------------------|
D|----------------------------------------------------------------|
A|----------------2-----------2---4-----------4---4-----------4---|
E|2-----------2---------------------------------------------------|
B|----------------------------------------------------------------|

G|----------------------------------------------------------------|
D|----------------------------------------------------------------|
A|----------------2-----------2-----------------------------------|
E|2-----------2-------------------2-------------------------------|
B|----------------------------------------------------------------|

1:50

G|----------------------------------------------------------------|
D|------------6---------------------------------------------------|
A|--------6-----------------------4---4---------------------------|
E|4---4-----------------------------------4-----------------------|
B|--------------------------------------------2-------------------|

G|----------------------------------------------------------------|
D|----------------------------------------------------------------|
A|6---6-----------------------------------------------------------|
E|--------6-----------------------2-------------------------------|
B|------------4---------------------------------------------------|

G|----------------------------------------------------------------|
D|------------6---------------------------------------------------|
A|--------6-----------------------2---2---------------------------|
E|4---4-----------------------------------2-----------------------|
B|--------------------------------------------0-------------------|

G|----------------------------------------------------------------|
D|----------------------------------------------------------------|
A|--------------------------------4-------------------------------|
E|0---0---0---0---0---0---0---0-----------------------------------|
B|----------------------------------------------------------------|

G|--------------------------------|
D|--------------------------------|
A|--------------------------------|
E|--------------------------------|
B|--------------------------------|

2:15

G|----------------------------------------------------------------|
D|----------------------------------------------------------------|
A|----------------2---------------4-------------------------------|
E|2-----------2-----------------------------------2---------------|
B|----------------------------------------------------------------|

G|----------------------------------------------------------------|
D|4---------------------------------------------------------------|
A|----------------2---------------4-------------------------------|
E|------------------------------------------------2---------------|
B|----------------------------------------------------------------|

G|----------------------------------------------------------------|
D|----------------------------------------------------------------|
A|-------------------------------------------------1--------------|
E|1-----------------------1-------1-------------------------------|
B|----------------------------------------------------------------|

G|----------------------------------------------------------------|
D|----------------------------------------------------------------|
A|----------------2---------------4-------------------2---1-------|
E|2-----------------------------------------------------------4---|
B|----------------------------------------------------------------|

2:37

G|----------------------------------------------------------------|
D|----------------------------------------------------------------|
A|----------------2---------------4-------------------2---1-------|
E|2-----------------------------------------------------------4---|
B|----------------------------------------------------------------|

G|----------------------------------------------------------------|
D|----------------------------------------------------------------|
A|----------------2---------------4---------------------------1---|
E|2---------------------------------------------------2---4-------|
B|----------------------------------------------------------------|

G|----------------------------------------------------------------|
D|----------------4-----------------------------------------------|
A|2-------------------------------4-----------4---4---------------|
E|----------------------------------------------------------------|
B|----------------------------------------------------------------|

G|----------------------------------------------------------------|
D|----------------------------------------------------------------|
A|2-----------2-------------------4-----------4---4---------------|
E|----------------2-----------2-----------------------------------|
B|----------------------------------------------------------------|

G|--------------------------------|
D|--------------------------------|
A|--------------------------------|
E|------------2-------------------|
B|--------------------------------|

            
            
Suggest correction
Creating personal tab
Creating personal tab
You can edit any tab online and save it as your Personal.

You can edit, replace or remove any tab part or add personal notes – all changes will be seen only by you.

Personal tabs can be accessed anytime from any device, even offline.
Learn more »
Give kudos to tab author, rate the tab!
1 2 3 4 5
comments
print report bad tab
guest
You may want to rate the tab now too:
select rating
Wanna post a correction for this tab? Suggest correction