Oops, an error
Loading. Please wait.

The Moonbeam Song bass

16 views 1 this week
no commentswrite comment
1 2 3 4 5
3 more votes to show rating
add to favorites
×
Save as Personal and add changes to this tab that will be seen only by you. Learn more ›
×
You can save this tab as Personal to edit and correct it or add notes. All changes will be seen only by you. Learn more »
launch autoscroll
font size
0
reset
guitar tuner
edit
Autoscroll
slow
fast
+/-
esc
set tempo
stop
Author
Difficulty
Tabbed by: 6METAL6BASSIST6
E-mail: petergriffinav@gmail.com

Tuning: 1/4 step up.

G|------------------------------------------------------------------------------------------------|
D|------------------------------------------------------------------------------------------------|
A|3---------------------------------------------3-------------------------------------------------|
E|------------------------3-----------------------------------------------3-----------------------|

G|------------------------------------------------------------------------------------------------|
D|------------------------------------------------------------------------------------------------|
A|3---------------------------------------------3-------------------------------------------------|
E|------------------------3-----------------------------------------------3-------------------3---|

0:13

G|------------------------------------------------------------------------------------------------|
D|------------------------------------------------------------------------------------------------|
A|3---------------------------------------------3-------------------------------------------------|
E|------------------------3-----------------------------------------------3-----------------------|

G|------------------------------------------------------------------------------------------------|
D|5---------------------------------------------5-------------------------------------------------| x2
A|------------------------5-----------------------------------------------5-----------------------|
E|------------------------------------------------------------------------------------------------|

0:33

G|------------------------------------------------------------------------------------------------|
D|------------------------------------------------------------------------------------------------| x2
A|3---------------------------------------------3-------------------------------------------------|
E|------------------------3-----------------------------------------------3-----------------------|

0:45

G|------------------------------------------------------------------------------------------------|
D|----------------------------------------------3-------------------------------------------------|
A|------------------------3-----------------------------------------------3---------------3---4---|
E|1-----------------------------------------------------------------------------------------------|

G|------------------------------------------------------------------------------------------------|
D|------------------------------------------------------------------------------------------------|
A|5---------------------------------------------5-------------------------------------------------|
E|------------------------5-----------------------------------------------5-----------------------|

0:58

G|------------------------------------------------------------------------------------------------|
D|------------------------------------------------------------------------------------------------|
A|------------------------5-----------------------------------------------5-----------------------|
E|3---------------------------------------------3-------------------------------------------------|

G|------------------------------------------------------------------------------------------------|
D|------------------------------------------------------------------------------------------------|
A|------------------------5-----------------------------------------------5-----------------------|
E|3-------------------3-------------------------3-------------------------------------------------|

1:10

G|------------------------------------------------------------------------------------------------|
D|------------------------------------------------------------------------------------------------|
A|------------------------5-----------------------------------------------5-----------------------|
E|3---------------------------------------------3-------------------------------------------------|

G|------------------------------------------------------------------------|
D|------------------------------------------------------------------------|
A|------------------------5-----------------------------------------------|
E|3---------------------------------------------3-------------------------|

G|------------------------------------------------------------------------------------------------|
D|------------------------------------------------------------------------------------------------|
A|3---------------------------------------------3-------------------------------------------------|
E|------------------------3-----------------------------------------------3-----------------------|

1:28

G|------------------------------------------------------------------------------------------------|
D|------------------------------------------------------------------------------------------------|
A|3---------------------------------------------3-------------------------------------------------|
E|------------------------3-----------------------------------------------3-----------------------|

G|------------------------------------------------------------------------------------------------|
D|------------------------------------------------------------------------------------------------| x2
A|------------------------5-----------------------------------------------5-----------------------|
E|3---------------------------------------------3-------------------------------------------------|

1:47

G|------------------------------------------------------------------------------------------------|
D|------------------------------------------------------------------------------------------------|
A|3---------------------------------------------3-------------------------------------------------|
E|------------------------3-----------------------------------------------3-------------------3---|

G|------------------------------------------------------------------------------------------------|
D|------------------------------------------------------------------------------------------------|
A|3---------------------------------------------3-------------------------3-----------------------|
E|------------------------3-----------------------------------------------------------------------|

2:00

G|------------------------------------------------------------------------------------------------|
D|------------------------------------------------------------------------------------3---2---1---|
A|------------------------3-----------------------------------------------3-----------------------|
E|1---------------------------------------------1-------------------------------------------------|

G|------------------------------------------------------------------------------------------------|
D|0---------------------------------------------0-------------------------0-----------------------|
A|------------------------0-----------------------------------------------------------------------|
E|------------------------------------------------------------------------------------------------|

2:13

G|------------------------------------------------------------------------------------------------|
D|5-----------------------------------------------------------------------------------------------|
A|------------------------5-----------------------------------------------5-----------------------|
E|----------------------------------------------3-------------------------------------------------|

G|------------------------------------------------------------------------------------------------|
D|------------------------------------------------------------------------------------------------| x2
A|------------------------5-----------------------------------------------5-----------------------|
E|3---------------------------------------------3-------------------------------------------------|

G|------------------------------------------------------------------------|
D|------------------------------------------------------------------------|
A|------------------------5-----------------------------------------------|
E|3---------------------------------------------3---------------------3---|

G|------------------------------------------------------------------------------------------------|
D|------------------------------------------------------------------------------------------------|
A|3-------------------3-------------------------3---------------------3-----------------------2---|
E|------------------------3-----------------3-----------------------------3-----------3---5-------|

2:43

G|------------------------------------------------------------------------------------------------|
D|------------------------------------------------------------------------------------------------|
A|3-------------------3-------------------------3---------------------3---------------------------|
E|------------------------3-----------------3-----------------------------3-----------------------|

G|------------------------------------------------------------------------------------------------|
D|5-------------------5-------------------------5---------------------5---------------------------|
A|------------------------5-----------------------------------------------5-------------------5---|
E|------------------------------------------------------------------------------------------------|

G|------------------------------------------------------------------------------------------------|
D|----------------------------------------------5-------------------------------------------------|
A|------------------------5-----------------5-----------------------------5-----------------------|
E|3-------------------3-----------------------------------------------3-----------------------3---|

3:02

G|------------------------------------------------------------------------------------------------|
D|------------------------------------------------------------------------------------------------|
A|3-------------------3-------------------------3---------------------3-----------------------2---|
E|------------------------3-----------------3-----------------------------3-----------3---5-------|

G|----------------------------------------------------------------------------------------------------|
D|------------------------------------------------------------------------------------2-----------3---| fades
A|3-------------------3-------------------------3---------------------3---5---------------------------|  out
E|------------------------3-----------------3---------------------------------------------------------| here.

            
            
Suggest correction
Creating personal tab
Creating personal tab
You can edit any tab online and save it as your Personal.

You can edit, replace or remove any tab part or add personal notes – all changes will be seen only by you.

Personal tabs can be accessed anytime from any device, even offline.
Learn more »
Give kudos to tab author, rate the tab!
1 2 3 4 5
comments
print report bad tab
guest
You may want to rate the tab now too:
select rating
Wanna post a correction for this tab? Suggest correction