Oops, an error
Loading. Please wait.

Million Dollar Bill Tab

7,606 views 12 this week
no commentswrite comment
1 2 3 4 5
excellent!
x 4
add to favorites
launch autoscroll
font size
0
reset
how to read this tab
guitar tuner
Tab Pro tools
  • play this tab
  • loop segment
  • change instrument
  • show fretboard
  • metronome
×
Best way to learn
"Million Dollar Bill"
Autoscroll
slow
fast
+/-
esc
set tempo
stop
Contributor
Difficulty
intermediate
Chords Used:
Am:(x02210)
Em:(022000)
C:(x32010)
G:(320003)
D:(x00232)
D7:(x00212)
B:(x24432)

Intro/Bridge:
   G                       D                   
e|---33-----33---33-----33---22---22---22---22-|
B|---33-----33---33-----33---33---33---33---33-|
G|---00-----00---00-----00---22-2-22---22---xx-|
D|-------------0----0h2----0---------4----2----|
A|------0h2------------------------------------|
E|-3-------------------------------------------|
   Am                  C          (1st time) (2nd time)
e|---00---00---00---00---00---00-|---00---00-|--------|
B|---11---11---11---11---11---11-|---11---11-|--------|
G|---22-0----------------00-0-00-|---00---00-|--------|
D|---22------2----0--------------|-2----0----|-0h2----|
A|-0-------------------3---------|-----------|--------|
E|-------------------------------|-----------|--------|

Verse I/II/III:

   G                       D                   
e|---33-----33---33-----33---22---22---22---22-|
B|---33-----33---33-----33---33---33---33---33-|
G|---00-----00---00-----00---22-2-22---22---xx-|
D|-------------0----0h2----0---------4----2----|
A|------0h2------------------------------------|
E|-3-------------------------------------------|
   Am                   C            (1st time)     (2nd time)
e|---00---00---00---00---00-----00-|---00---00-|-0---------------|
B|---11---11---11---11---11-----11-|---11---11-|-1---------------|
G|---22-0----------------00-----00-|-0-00---00-|-0--Let ring out-|
D|---22------2----0---------0h2----|------0----|-2---------------|
A|-0-------------------3-----------|-----------|-3---------------|
E|---------------------------------|-----------|-----------------|

Chorus:
        Am      Em        C    G    D
When it hits me that shes left me alone

       Am   Em      C   G       B
When I finally move on with my life

    Am  Em  C       G     D     D7
Her goodbye written into stone

        Am     C              G      D
And her shadow grown into the night

Outro:

   G                       D                   
e|---33-----33---33-----33---22---22---22---22-|
B|---33-----33---33-----33---33---33---33---33-|
G|---00-----00---00-----00---22-2-22---22---xx-|
D|-------------0----0h2----0---------4----2----|
A|------0h2------------------------------------|
E|-3-------------------------------------------|
   Am                     C    (1st time)          (2nd time)
e|---00---00---00---00-|---00---00---00---00-|-0-----------------|
B|---11---11---11---11-|---11---11---11---11-|-1-----------------|
G|---22-0--------------|---00-0-00---00---00-|-0-Let it ring out-|
D|---22------2----0----|-----------2----0----|-2-----------------|
A|-0-------------------|-3-------------------|-3-----------------|
E|---------------------|---------------------|-------------------|


Song Order:

Intro:(2x)

Verse I:(2x)

Bridge:(1x)

Verse II:(2x)

Bridge:(2x)

Chorus:(1x)

Verse III: (2x)

Outro:(2x)
comments
print report bad tab
I want to post or [tab]
guest
You may want to rate the tab now too:
select rating
Please do not post tabs as comments. Select "correction" instead!