Oops, an error
Loading. Please wait.

Mom And Dad Tab

3,540 views 9 this week
no commentswrite comment
1 2 3 4 5
excellent!
x 1
add to favorites
launch autoscroll
font size
0
reset
how to read this tab
guitar tuner
Tab Pro tools
  • play this tab
  • loop segment
  • change instrument
  • show fretboard
  • metronome
Autoscroll
slow
fast
+/-
esc
set tempo
stop
Contributor
-----------------------------------------------------------------------------
                             Mom and Dad - Middle Brother
-----------------------------------------------------------------------------
Tabbed by: Kent

Intro:
e|-----3--------0-----7--------0-----8---------2------10--------------------|
B|-----3--------0-----8--------1-/---8---------3--/---10--------------------|
G|-----4--------0-----9--------0-----9---------2--/---11--------------------|
D|-----5----5-4-2-/---9----5-4-2-/---10----5-4-0------12--------------------|
A|(5)-------5-3-2-/--------5-3-3-/---------5-3------------------------------|
E|-3--------3-2-0----------3-2-------------3-2------------------------------|
    x 2

my ear isn't so good. i can't really hear if that F# chord has a diminished 5th or 
not (i.e., if it's 244xxx or 234xxx). play what sounds good to you.


Verse:
[G] Momma gave a camera to a little star.
[Em] All she gets is pictures of hotels and bars.
[C] No Big Ben, no Statue of Liber- [D] -ty.

[G] Loose women and one night stands.
[Em] Kinda wish I wasn't livin other peoples' hands.
[C] No control, no lack of shit for [D] free.

Bridge:
I was [Gmaj7] born
in the [C] wrong place
At the [Gmaj7] wrong time
But I [D] don't know why I never [G] spoke up.

(intro riff)

Verse:
Dad gave his son some good advice.
The sons in bed, he's been up all night.
Even too tired for another shot and a beer.

Shaky days and incredible nights.
Never goin down without a fight.
Looks like I'm all booked up next year.

Bridge:
And I was layin
My soul down.
For the wrong price
For the very first time of my life.

(intro riff x 2)

(first couple of verses and bridge again)


************************************

| /   slide up
| \   slide down
| h   hammer-on
| p   pull-off
| ~   vibrato
| +   harmonic
| x   Mute note
| b   Bend
| pb  Pre-bend
| br  Bend release
| pbr Pre-bend release
| brb Bend release bend

************************************
comments
We did not receive enough feedback on this tab! Please rate:
print report bad tab
1 2 3 4 5
I want to post or [tab]
guest
You may want to rate the tab now too:
select rating
Please do not post tabs as comments. Select "correction" instead!