Oops, an error
Loading. Please wait.

Thanks For Nothing Chords

7,400 views 9 this week
2 commentsread comments
1 2 3 4 5
accurate
x 8
add to favorites
launch autoscroll
font size
0
reset
transpose
0
reset
simplify chords
display chords
guitar tuner
Tab Pro tools
  • play this tab
  • loop segment
  • change instrument
  • show fretboard
  • metronome
×
Best way to learn
"Thanks For Nothing"
Autoscroll
slow
fast
+/-
esc
set tempo
stop
Contributor
Capo
2nd fret
Middle Brother - Thanks For Nothing

Capo 2nd fret

Intro: ()only the first time

     G           Em      C       G      Em     C
e|-----------------------------------------------------------|
B|--1--0-----------------------------------------------------|
G|--------2-0-------------------------------------5-)--------|
D|-------------4--2--0-----------------2s4-5---7-------------|
A|----------------------3--2----(0p2p3-----------------------|
E|-----------------------------------------------------------|

G                          Em         C       G      Em   C
I got of the plain ok , now I have a city to myself
G                                  Em                             
the strangers in the coffe shops the sidewalks 
          C              G      Em   C
and the way the evening smells
D                                    G
but none oft it distratcs me in the ways that i have planned
D                                      C
or brings me back my smile like i was hoping
D                                          G
now there's a distance between me and the world that's offering it's hand
Am                                Am/F#              G
and I have you to thank for that, thanks for nothing

it's probably raining of in london
if its snowing here in nashville tenesse
but I hope he's taking care of you and showing you your where you need to be
but I don't want you to leave once he gives himself away
the way your match looks after its done glowing
you don't know how it feels to think you'll never be the same
and i have you to thank for that thanks for nothing

now the only girls i meet all look for hearts that they can fix
but mine is more like a kid that has gone missing
and there's a pretty girl in front of me that I know I won't let in
and I have you to thank for that thanks for nothing
and I have you to thank for that thanks for nothing

http://www.middlebrother.com/
comments
print report bad tab
2 comments total.
+2 reply
rubyrod7 wrote on March 19 2013, 01:14 am

Hi, just a quick correction, i'm pretty sure the first part of the intro goes like this:

e|--------------------------------------------------------|
B|--1-1-0-0-----------------------------------------------|
G|----------2-2-0-0---------------------------------------|
D|------------------4-4-2-2-0-0--------------------2s4-5-7|
A|------------------------------3-3-2-2----0h2h3----------|
E|--------------------------------------------------------|

0 reply
grizzstraight21 wrote on June 14 2015, 02:01 pm

e|-----------------------------------------------------------|
B|-----------------------------------------------------------|
G|-----------------------------------------------------------|
D|-10-10-9-9-7-7-5-5-4-4-2-2-0-0----------------2/5-2--------|
A|-------------------------------3-3-2-2----0-2--------------|
E|-----------------------------------------------------------|

To me it always sounded like this little riff was lower pitch and thus should be played on the D string. Still capo on 2.

Also, I think the little lick at the end is much simpler than everyone else is making it out to be.

Lastly, in the verse when the riff comes in he just plays the riff starting from that part at the 4th fret on D string.

I want to post or [tab]
guest
You may want to rate the tab now too:
select rating
Please do not post tabs as comments. Select "correction" instead!