Oops, an error
Loading. Please wait.

Butcher Blues tab

28 views 3 this week
no commentswrite comment
1 2 3 4 5
3 more votes to show rating
add to favorites
×
Save as Personal and add changes to this tab that will be seen only by you. Learn more ›
×
You can save this tab as Personal to edit and correct it or add notes. All changes will be seen only by you. Learn more »
launch autoscroll
font size
0
reset
how to read this tab
guitar tuner
edit
Autoscroll
slow
fast
+/-
esc
set tempo
stop
About this tab version
The song is in the key of B major. The song mostly consist of a simple riff which dominates through the intro and the verses. The most interesting musical element in the song comes within the verse, where strangely modified B7 chords are played at the 14th fret. In my version, I replaced them with simple B7th barre chords. If you choose to play my version, play the E shape B7th barre chord with muting the D and B strings. And the chorus is also played with some delay effect. Was this info helpful? Yes No
[Intro (Main) riff] 0:00
e|-------------------------|-------------------------|-------------------------|
B|-------------------------|-------------------------|-------------------------|
G|---------2-2h4-4-2-------|---------2-2h4-4-2-------|---------2-2h4-4-2-------|
D|-----2h4-----------4p2---|-----2h4-----------4p2---|-----2h4----------4p2----|
A|-2-2-------------------5-|-2-2-------------------5-|-2-2------------------5--|
E|-------------------------|-------------------------|-------------------------|

[Verse] 0:35
e|-------------------------|-------------------------|-------------------------|
B|-------------------------|-------------------------|-------------------------|
G|---------2-2h4-4-2-------|---------2-2h4-4-2-------|---------2-2h4-4-2-------|
D|-----2h4-----------4p2---|-----2h4-----------4p2---|-----2h4----------4p2----|
A|-2-2-------------------5-|-2-2-------------------5-|-2-2------------------5--|
E|-------------------------|-------------------------|-------------------------|

[Chorus] 2x 0:59
In the chorus there are 2 modified chords(first two but you can replace them with B7th chords played on the
7th fret):
The strumming is always down.
E|---x--x---x----x----x--7----------------------------------------------------------|
B|--12--10--9----12--10--7----------------------------------------------------------|
G|--11--11--9----11--11--8----------------------------------------------------------|
D|--13--13--9----13--13--9----------------------------------------------------------|
A|--14--14--7----14--14--9----------------------------------------------------------|
E|---x--x---x----x---x---7----------------------------------------------------------|

[Verse] 1:21
e|-------------------------|-------------------------|-------------------------|
B|-------------------------|-------------------------|-------------------------|
G|---------2-2h4-4-2-------|---------2-2h4-4-2-------|---------2-2h4-4-2-------|
D|-----2h4-----------4p2---|-----2h4-----------4p2---|-----2h4----------4p2----|
A|-2-2-------------------5-|-2-2-------------------5-|-2-2------------------5--|
E|-------------------------|-------------------------|-------------------------|

[Chorus] 2x 1:47
E|---x--x---x----x----x--7----------------------------------------------------------|
B|--12--10--9----12--10--7----------------------------------------------------------|
G|--11--11--9----11--11--8----------------------------------------------------------|
D|--13--13--9----13--13--9----------------------------------------------------------|
A|--14--14--7----14--14--9----------------------------------------------------------|
E|---x--x---x----x---x---7----------------------------------------------------------|

[Second Verse] 2:06
In the second verse the bass plays the main riff, on the guitar just a simple B barre chord is strummed 
constantly.
e|---7------------------------------------------------------------------------|
B|---7------------------------------------------------------------------------|
G|---8------------------------------------------------------------------------|
D|---9------------------------------------------------------------------------|
A|---9------------------------------------------------------------------------|
E|---7------------------------------------------------------------------------|

[Chorus] 2x 2:59
E|---x--x---x----x----x--7----------------------------------------------------------|
B|--12--10--9----12--10--7----------------------------------------------------------|
G|--11--11--9----11--11--8----------------------------------------------------------|
D|--13--13--9----13--13--9----------------------------------------------------------|
A|--14--14--7----14--14--9----------------------------------------------------------|
E|---x--x---x----x---x---7----------------------------------------------------------|

[Outro] 3:21 
The outro is the same as the "Second Verse", the bass plays the main riff and the guitar strums the B barre
chord.
e|---7------------------------------------------------------------------------|
B|---7------------------------------------------------------------------------|
G|---8------------------------------------------------------------------------|
D|---9------------------------------------------------------------------------|
A|---9------------------------------------------------------------------------|
E|---7------------------------------------------------------------------------|

******************************************
| x   Dead note
| h   Hammer-on
| p   Pull-off
******************************************

            
            
Suggest correction
Creating personal tab
Creating personal tab
You can edit any tab online and save it as your Personal.

You can edit, replace or remove any tab part or add personal notes – all changes will be seen only by you.

Personal tabs can be accessed anytime from any device, even offline.
Learn more »
Give kudos to tab author, rate the tab!
1 2 3 4 5
comments
print report bad tab
guest
You may want to rate the tab now too:
select rating
Wanna post a correction for this tab? Suggest correction