Oops, an error
Loading. Please wait.

Head Home solo tab

by Midlake
473 views 6 this week
no commentswrite comment
1 2 3 4 5
3 more votes to show rating
add to favorites
×
Save as Personal and add changes to this tab that will be seen only by you. Learn more ›
×
You can save this tab as Personal to edit and correct it or add notes. All changes will be seen only by you. Learn more »
launch autoscroll
font size
0
reset
how to read this tab
guitar tuner
edit
Autoscroll
slow
fast
+/-
esc
set tempo
stop
Author
Difficulty
-------------------------------------------------------------------------------
                             Head Home Solo - Midlake
-------------------------------------------------------------------------------
Tabbed by: Clydelee
E-mail: mqsand@gmail.com

Tuning: Standard
Key: D-Minor
Tempo: 135 seems close

I think i'll head hoooooooooooooommmmmmme....enter solo 2:44

   1  e  &  a  2  e  &  a  3  e  &  a  4  e  &  a  1  e  &  a  2  e  &  a  3  e  &  a  4  e  &  a  
e|-------------------------------------------------------------------------------------------------|
B|-------------------------------------------------------------------------------------6--5--------|
G|-------------------------------------------------------------------5-----------7-----------7-----|
D|-------------------------------------------------------5-----5--7--------7-----------------------|
A|-------------------------------5-----5-----8----(8)----------------------------------------------|
E|-------5-----5-----8----(8)----------------------------------------------------------------------|


   1  e  &  a  2  e  &  a  3  e  &  a  4  e  &  a  1  e  &  a  2  e  &  a  3  e  &  a  4  e  &  a  
e|-------------------------------------------------------------------------------------------------|
B|---------------------b8-(8)---------------------------------------------(8)----------8--6--5-----|
G|(7)-------------------------------------------------------------------------------------------7--|
D|-------------------------------------------------------------------------------------------------|
A|-------------------------------------------------------------------------------------------------|
E|-------------------------------------------------------------------------------------------------|


   1  e  &  a  2  e  &  a  3  e  &  a  4  e  &  a  1  e  &  a  2  e  &  a  3  e  &  a  4  e  &  a  
e|-------------------------------------------------------------------------------------------------|
B|-6--5--------------------------------------------------------------------------------------------|
G|-------7--5--------------------------------------------------------------------------------------|
D|-------------8--7--5--7--5-----5--7--5-----------------------------------------------------------|
A|----------------------------8-----------8--7----------------(7)----5-----------------------------|
E|-------------------------------------------------------------------------8-----------(8)---------|


   1  e  &  a  2  e  &  a  3  e  &  a  4  e  &  a  1  e  &  a  2  e  &  a  3  e  &  a  4  e  &  a  
e|-------------------------------------------------------------------------------------------------|
B|-------------------------------------------------------------------------------------------------|
G|-------------------------------------------------------------------------------------14----17----|
D|-------------------------------------------------------------------------15----17----------------|
A|-------------------------------------8-----10----12----13----15----17----------------------------|
E|(8)----------6-----6-----8/----10----------------------------------------------------------------|


   1  e  &  a  2  e  &  a  3  e  &  a  4  e  &  a  1  e  &  a  2  e  &  a  3  e  &  a  4  e  &  a  
e|-------------------------------------------------------------------------------------------------|
B|------------------------------------------------------------------------------------------b15----|
G|b17---------------b19--------------(b19)---17---------------(17)---14----17----14----------------|
D|-------------------------------------------------------------------------------------------------|
A|-------------------------------------------------------------------------------------------------|
E|-------------------------------------------------------------------------------------------------|


   1  e  &  a  2  e  &  a  3  e  &  a  4  e  &  a  1  e  &  a  2  e  &  a  3  e  &  a  4  e  &  a  
e|-------------------------------------------------------------------------------------------10----|
B|-----------------------(b15)---------------------------------------------------10----10-13-------|
G|-------------------------------------------------------------------10----10-12-------------------|
D|-------------------------------------------------------10----10-12-------------------------------|
A|-------------------------------------------10----10-12-------------------------------------------|
E|-------------------------------------10-12-------------------------------------------------------|


   1  e  &  a  2  -trip-   3  -trip-   4  -trip-   1  e  &  a  2  e  &  a  3  e  &  a  4  e  &  a  
e|-10---------b12--13--12--10----------------------------------------------------------------------|
B|-------13--------------------13--10-------------------------------------------------~11----------|
G|-------------------------------------12--10-----~12---~12----------------------------------------|
D|---------------------------------------------12--------------------------------------------------|
A|-------------------------------------------------------------------------------------------------|
E|-------------------------------------------------------------------------------------------------|


   1  e  &  a  2  e  &  a  3  e  &  a  4  e  &  a  1  e  &  a  2  e  &  a  3  e  &  a  4  e  &  a  
e|-------------------------------------------------------------------------------------------------|
B|(11)--------------~11---------------(11)--------------------~11----------------------------------|
G|-------------------------------------------------------------------------------------------12-10-|
D|-------------------------------------------------------------------------------------------------|
A|-------------------------------------------------------------------------------------------------|
E|-------------------------------------------------------------------------------------------------|


   1  e  &  a  2  e  &  a  3  e  &  a  4  e  &  a  
e|------------------------------------------------|
B|------------------------------------------------|
G|------------------------------------------------| Bring me a day full of honest work..
D|-12---------------------------------------------|
A|------------------------------------------------|
E|------------------------------------------------|


                Well that should be it, not sure if it is 100% right, but i know its close. The guitar tone is
very fuzzy on the recording, so it is tough to make out every single note, so i did some inferring and it seems
to fit well. Listen to the record to figure out exactly how he bends the notes, and let me know if anything is
terribly wrong.
Enjoy that good good MIIIIDDLAAAAKE!

************************************

| /    slide up
| \    slide down
| h    hammer-on
| p    pull-off
| ~    vibrato
| +    harmonic
| x    Mute note
| b    Bend
| pb   Pre-bend
| br   Bend release
| pbr  Pre-bend release
| brb  Bend release bend
| trip Triplet

************************************

            
            
Suggest correction
Creating personal tab
Creating personal tab
You can edit any tab online and save it as your Personal.

You can edit, replace or remove any tab part or add personal notes – all changes will be seen only by you.

Personal tabs can be accessed anytime from any device, even offline.
Learn more »
Give kudos to tab author, rate the tab!
1 2 3 4 5
comments
print report bad tab
guest
You may want to rate the tab now too:
select rating
Wanna post a correction for this tab? Suggest correction