Oops, an error
Loading. Please wait.

Shadows Bass Tab

version 1
version 1

Whole song

Interactive

2,441 views 1 this week
1 commentread comment
1 2 3 4 5
x 4
add to favorites
launch autoscroll
font size
0
reset
guitar tuner
Autoscroll
slow
fast
+/-
esc
set tempo
stop
Help us to improve Ultimate-Guitar.com Take our survey!
×
Author
Difficulty
intermediate
-------------------------------------------------------------------------------
			    Shadows - Midnight Juggernauts
-------------------------------------------------------------------------------

Midnight Juggernauts: www.midnightjuggernauts.com

Tabbed By : the-moon-unit

Tuning: Standard EADG

Intro
G|------------4-------------|-2-2---22-2--1-3-4----------|
D|-3-3------3---------4-5-6-|-----1-------------1-3-4-3-1|
A|--------------3---3-------|----------------------------|
E|-----3/5--------5---------|----------------------------|

G|-4-4--4-4-4------------4-4--4-44-2-4---|
D|-----3-------3-5-6-5-3-----3---------4-|
A|---------------------------------------|
E|---------------------------------------|

Just repeats throughout the whole song, ends on a 3 on D

| /  slide up
| \  slide down
| h  hammer-on
| p  pull-off
| ~  vibrato
| +  harmonic
| x  Mute note

Credit to "NiteShok" who figured it out first and put up a video on youtube, this tab is 
result of watching him play and messing around with it myself.
Suggest correction
comments
print report bad tab
1 comment total.
0 reply
danthem@n 135 Nov 05, 2007 07:24 PM

real inaccurate

guest
You may want to rate the tab now too:
select rating
Wanna post a correction for this tab? Suggest correction