Oops, an error
Loading. Please wait.

Shadows Bass Tab

version 1
version 1

Intro

Whole song

Interactive

952 views 1 this week
no commentswrite comment
1 2 3 4 5
please rate
add to favorites
launch autoscroll
font size
0
reset
guitar tuner
Autoscroll
slow
fast
+/-
esc
set tempo
stop
Help us to improve Ultimate-Guitar.com Take our survey!
×
Author
-------------------------------------------------------------------------------
			     Shadows - Midnight Juggernauts
-------------------------------------------------------------------------------

Tabbed By : Dan
e-mail: dangerous_danny@hotmail.com

Tuning: Standard

This is basically the riff first time it is played not including muted notes. 


G|------3h5--------3h5------------|------------------------------------------|
D|--------------------------3-----|------------------------------------------|
A|--3-3------33--3------5-6-------|--------------------1-3-4-3-1-------------|
E|--------------------------------|--1-1-11-1-1--1-3-4-----------------------|

G|--------------------------------|------------------------------------------|
D|--------------------------------|------------------------------------------|
A|-----------------------6--------|---------------------------2--------------|
E|--4-4--4-4--4--4--4-/7---7-\4---|--4-4--4-4--4-4-4-4--2--4-----------------|


| /  slide up
| \  slide down
| h  hammer-on
| p  pull-off
| ~  vibrato
| +  harmonic
| x  Mute note
Suggest correction
Give kudos to tab author, rate the tab!
1 2 3 4 5
comments
print report bad tab
guest
You may want to rate the tab now too:
select rating
Wanna post a correction for this tab? Suggest correction