Oops, an error
Loading. Please wait.

Shadows Bass

version 2
version 2

Whole song

Interactive

3,559 views 12 this week
2 commentsread comments
1 2 3 4 5
x 4
add to favorites
launch autoscroll
font size
0
reset
guitar tuner
×
Best way to learn
"Shadows"
Autoscroll
slow
fast
+/-
esc
set tempo
stop
Author
Difficulty
  follow
intermediate
This is the bass riff played throughout the song. It's not perfectly correct, having
them live, but it's pretty close. You can view a video of me playing the song at:
http://www.youtube.com/watch?v=eAm5MmayUJM

G|-----3h5-----3-5---------------------------------------------|
D|-------------------------------------------------------------|
A|-3-3-----3-3----3-5-6----------------------------------------|
E|----------------------1-1-0-0h1-1----------------------------|

G|-------------------------------------------------------------|
D|-------------------------------------------------------------|
A|-------1-3-4-3-1---------------3-5-6-3-------------------2/3-|
E|-1-3-4-----------4-4-0-0h4-4-4---------4-4-0-0h4-4-4-2-4-----|
Suggest correction
comments
print report bad tab
2 comments total.
0 reply
jacobjcnsleft 110 Dec 19, 2007 08:47 PM

great tab, not perfect, but hey, it's good to see some good music on ultimate-guitar! should have won the j award!

0 reply
jacobjcnsleft 110 Dec 19, 2007 09:20 PM

hey, after repeated listening to the recording, i think i've figured out what is wrong with this...
where you've got
it
G|-------------------------------------------------------------|
D|------------------------------------------------
-------------|
A|-------1-3-4-3-1---------------3-5-6-3-------------------2/3-|
E|-1-3-4-----------4-4-0-0h4-4-4------
---4-4-0-0h4-4-4-2-4-----|

it should
be...
G|---------------------------------------------------------------|
D|-------------------------------------------
--------------------|
A|-------1-3-4-3-1---------------3-6-3-----------------------2/3-|
E|-1-3-4-----------4-4-0-0h4-
4-4-------4---4-4-0-0h4-4-4-2-4-----|

it sounded wrong at first, but i'm sure this correction is right.
great work
anyway.

guest
You may want to rate the tab now too:
select rating
Wanna post a correction for this tab? Suggest correction