Oops, an error
Loading. Please wait.

Profiteers Bass Tab

28 views 1 this week
no commentswrite comment
1 2 3 4 5
3 more votes to show rating
add to favorites
launch autoscroll
font size
0
reset
guitar tuner
Autoscroll
slow
fast
+/-
esc
set tempo
stop
Help us to improve Ultimate-Guitar.com Take our survey!
×
Author
PROFITEERS

Hirst/Moginie/Rotsey
Album : Head Injuries
Bass : Andrew James

INTRO:
G |---------------|
D |*-------------*|
A |*-3-3-1-------*| x18
E |---------------|

G |-----|-------------------------|```|---------------------------------|---|
D |-----|*-------------4-3-1-----*|```|-------------4-3-1---------------|---|
A |-3-3-|*-1-----3-----------4-3-*|x6 |-1-----3-----------4-3-1---------|---|
E |-----|-------------------------|```|-------------------------4-3-2-1-|-0-|

VERSE (no bass)

CHORUS:
....................Don't tell me
G |---------|---------------------------------|
D |---------|---------------------------------|
A |---------|---------0-------0-----023-------|
E |-3---2---|-0-------------------------------|

G |----------------------------------|-------------|
D |----------------------------------|-------------|
A |-----------0-------0-----023------|-------------|
E |-320------------------------------|-3---2---0---|

VERSE 2 (no bass)

CHORUS 2:
G |---------|---------------------------------|
D |---------|---------------------------------|
A |---------|---------0-------0-----023-------|
E |-3---2---|-0-------------------------------|

G |----------------------------------|---------|
D |----------------------------------|---------|
A |-----------0-------0-----023------|---------|
E |-320------------------------------|-3---2---|

OUTRO/GUITAR SOLO:
G |-----------------------------------|```|---------------------------------|
D |*---------1-------3----1/3h5------*|```|---------1-------3-------2-------|
A |*-5-------------------------------*|x3 |-5-------------------------------|
E |-----------------------------------|```|---------------------------------|

G |-----------------------------------|```|---------------------------------|
D |*---------1-------3----1/3h5------*|```|---------1-------3-------2-------|
A |*-5-------------------------------*|x3 |-5-------------------------------|
E |-----------------------------------|```|---------------------------------|

G |-----------------------------------|```|---------------------------------|
D |*---------1-------3------/5-------*|```|---------1-------3----/5---5-----|
A |*-5-------------------------------*|x3 |-5-------------------------------|
E |-----------------------------------|```|---------------------------------|

G |-----------------------------------|```|---------------------------------|
D |*---------1-------3----1/3h5------*|```|---------1-------3-------2-------|
A |*-5-------------------------------*|x3 |-5-------------------------------|
E |-----------------------------------|```|---------------------------------|

G |-----------------------------------|```|---------------------------------|
D |*---------1-------3----1/3h5------*|```|---------1-------3-------2-------|
A |*-5-------------------------------*|x3 |-5-------------------------------|
E |-----------------------------------|```|---------------------------------|

G |---------------------------------|---------------------------------|
D |---------1-------3------/5-------|---------1-------3----1/3h5------|
A |-5-------------------------------|-5-------------------------------|
E |---------------------------------|---------------------------------|

G |---------------------------------|---------------------------------|
D |---------1-------3-------2-------|---------1-------3-------2-------|
A |-5-------------------------------|-5-------------------------------|
E |---------------------------------|---------------------------------|

DRUM SOLO

Transcribed by Brian Camp
E-mail: cambrian@vianet.net.au
Suggest correction
Give kudos to tab author, rate the tab!
1 2 3 4 5
comments
print report bad tab
guest
You may want to rate the tab now too:
select rating
Wanna post a correction for this tab? Suggest correction