Oops, an error
Loading. Please wait.

Progress Bass Tab

169 views 3 this week
no commentswrite comment
1 2 3 4 5
please rate
add to favorites
launch autoscroll
font size
0
reset
guitar tuner
Tab Pro tools
  • play this tab
  • loop segment
  • change instrument
  • show fretboard
  • metronome
Autoscroll
slow
fast
+/-
esc
set tempo
stop
Contributor
PROGRESS

Moginie/Garrett
EP : Species Deceases
Bass : Peter Gifford

INTRO:
G |-----------------------------------|
D |*---------------------------------*|
A |*-5-5-3-0-3-3---------------------*| x4
E |--------------5-3-5-5-3-0-1-1-0-0--|

* Verse 1 (no bass)- Say yes to a real life ambition....

G |-5/7---|-----------------------------------|
D |-------|*---------------------------------*|
A |-------|*-5-5-3-0-3-3---------------------*| x4
E |-------|--------------5-3-5-5-3-0-1-1-0-0--|

VERSE 2:

* First part of verse 2 (no bass)- Got your last meal....

............Manhattanisation is coming
G |-------|-----------------------------------|
D |-------|*---------------------------------*|
A |-0-2-3-|*-5-5-3-0-3-3---------------------*| x4
E |-------|--------------3-5---5-3-0-1-1------|

BRIDGE:
.......16 million....................I can't hear you at all
G |---------------------------------|---------------------------------|
D |---------------------------------|---------------------------------|
A |-2-2-2-2-2-2-2-2-3-3-3-3-3-3-3-3-|-2-2-2-2-2-2-2-2-5-5-5-5-5-------|
E |---------------------------------|---------------------------------|

CHORUS:
Some say that's progress......I say that's cruel
G |---------------------------------|---------------------------------|
D |---------------------------------|---------------------------------|
A |-------------3-2-----------------|-------------3-2-----------------|
E |-0---------0-----0---------0-3-2-|-0---------0-----0---------0-3-2-|

G |---------------------------------|---------------------------------|
D |---------------------------------|---------------------------------|
A |-------------3-2-----------------|-------------3-2-------5---5-5---|
E |-0---------0-----0---------0-3-2-|-0---------0-----0---------------|

INTERLUDE/GUITAR SOLO:
G |-----------------------------------|
D |*---------2-2-----3-3-----2-2-----*|
A |*-5-5-3-0-----3-0-----3-0-----3-0-*| x3
E |-----------------------------------|

G |---------------------------------|
D |---------------------------------|
A |-5-5-3-0-3-3-------------------3-|
E |-------------3-5---5-0-0-1-1-0---|

G |---------------------------------|---------------------------------|
D |---------------------------------|---------------------------------|
A |-5-5-----------------------------|-5-5-----------------------------|
E |---------------------------------|---------------------------------|

G |---------------------------------|---------------------------------|
D |---------------------------------|---------------------------------|
A |-5-5-----------------------------|-5-5-----------------------0-2-3-|
E |---------------------------------|-------------------0-2-3---------|

VERSE 3:
G |-----------------------------------|-----------------------------------|
D |*---------------------------------*|*---------------------------------*|
A |*-5-5-3-0-3-3-----------------0-3-*|*-5-5-3-0-3-3-----------------0-3-*|
E |--------------3-5---5-3-0-1-1------|--------------5-3-5-5-3-0-1-1------|

G |---------------------------------|---------------------------------|
D |---------------------------------|---------------------------------|
A |-5-5-3-0-3-3-----------------0-3-|-5-5-3-0-3-3---------------------|
E |-------------3-5---5-3-0-1-1-----|-------------5-3-5-5-3-0-1-1-0---|

BRIDGE 2:
...........I won't deny it
G |---------------------------------|---------------------------------|
D |-----2-2-4-4-5-------2-2-4-4-5---|-----2-2-4-4-5-------------------|
A |-2-2-------------2-2-------------|-2-2-------------5-5-5-5-5-5-5-5-|
E |---------------------------------|---------------------------------|

................I say..........PROGRESS
G |-------------------------------------------------|
D |-------------------------------------------------|
A |-5-5-5-5-5--/14\---------------------------------|
E |-------------------0-0---------------------------|

CHORUS:
.....I say..........PROGRESS
G |-----------------------------------|
D |*---------------------------------*|
A |*-----------2-3-------------------*| x3
E |--0-3-2-0-0------------------------|

..Some say that's progress
G |-----------------------------------|
D |*---------------------------------*|
A |*-------------------3-2-----------*| x3
E |--0-3-2-0---------0-----0----------|

G |---------------------------------------|
D |---------------------------------------|
A |-------------------3-2-----3/5-----5---|
E |-0-3-2-0---------0-----0-------------7-|

OUTRO:
G |---------------------------------|---------------------------------|
D |---------------------------------|---------------------------------|
A |-----2-3---3-3-2-----7-5---5-5---|-----2-3---3-3-2/7-7-0-5---3/5---|
E |-0-0-------------0-0-----------7-|-0-0-----------------------------|

G |---------------------------------|---------------------------------|
D |---------------------------------|---------------------------------|
A |-----2-3---3-3-2-----7-5---5-5---|-----2-3---3-3-2-----7-5---5-5---|
E |-0-0-------------0-0-----------7-|-0-0-------------0-0-------------|

Some say THAT'S PROGRESS
G |---------------------------------|---------------------------------|
D |-2-------------------------------|-2-------------------------------|
A |---3-2-3---3-3--/7-7-0-5---5-5---|---3-2-3---3-3--/7-7-0-3-/-5-5---|
E |---------------------------------|---------------------------------|

G |---------------------------------|-----------------------|---|
D |-2-------------------------------|-----------------------|---|
A |---3-2-3---3-3--/7-7-0-5---5-5---|-----2-3---3-3--/7-7-0-|-5-|
E |---------------------------------|-0-0-------------------|---|

Transcribed by Brian Camp
E-mail: cambrian@vianet.net.au
comments
We did not receive enough feedback on this tab! Please rate:
print report bad tab
1 2 3 4 5
I want to post or [tab]
guest
You may want to rate the tab now too:
select rating
Please do not post tabs as comments. Select "correction" instead!