Oops, an error
Loading. Please wait.

Say Your Prayers Bass Tab

69 views 1 this week
no commentswrite comment
1 2 3 4 5
please rate
add to favorites
launch autoscroll
font size
0
reset
guitar tuner
Autoscroll
slow
fast
+/-
esc
set tempo
stop
Help us to improve Ultimate-Guitar.com Take our survey!
×
Contributor
runbynight 1,063
SAY YOUR PRAYERS

Moginie
Album : The Real Thing
Bass : Bones Hillman

VERSE:
G |---|----------------------------------|----------------------------------|
D |---|*---------------------------------|---------------------------------*|
A |---|*---------------------------------|-----------------5---7---5-------*| x4
E |-5-|--7-7---5-7-7---5-7-7---5-7-7---5-|-7-7---5-7-7---7---7---7---7---5--|

G |---------------------------------|---------------------------------|
D |---------------------------------|---------------------------------|
A |---------------------------------|---------------------------------|
E |-7-7---5-7-7---5-7-7---5-7-7---5-|-7-7---5-7-7---5-7-7-------------|

CHORUS:
Say your prayers
G |---------------------------------|---------------------------------|
D |---------------------------------|---------------------------------|
A |---------------5-7---------------|-5-------------7---9---9---------|
E |-7-----------------------------7-|---------------------------------|

It might be round the corner
G |---------------------------------|---------------------------------|
D |---------------------------------|---------------------------------|
A |---------------------------------|-----------------------0-----0---|
E |-3-3-3-3-3-3-3-3-3-3-3-3---0-1-2-|---2-2-2-2-2-2-2-1-2-2-----2-----|

VERSE:
G |----------------------------------|---------------------------------|
D |*---------------------------------|--------------------------------*|
A |*---------------------------------|-----------------5---7---5------*| x4
E |--7-7---5-7-7---5-7-7---5-7-7---5-|-7-7---5-7-7---7---7---7---7---5-|

G |---------------------------------|---------------------------------|
D |---------------------------------|---------------------------------|
A |---------------------------------|-----------------5---7-----------|
E |-7-7---5-7-7---5-7-7---5-7-7---5-|-7-7---5-7-7---7---7-------------|

CHORUS

......................................................I've got the cure
G |---------------------------------|---------------------------------|
D |---------------------------------|---------------------------------|
A |---------------------------------|---------5-7-8-9---9-9-9-9-9-9-9-|
E |-7-7---5-7-7---5-7-7---5-7-7---5-|-7-7---5-------------------------|

G |---------------------------------|---------------------------------|
D |---------------------------------|---------------------------------|
A |-9-9-9-9-9-8-7-5---5-5-5-5-5-5-5-|-5-5-5-5-5-5-6-7---7-7-7-7-7-7-7-|
E |---------------------------------|---------------------------------|

G |---------------------------------|---------------------------------|
D |-----------------6-6-6-6-6-6-6-6-|-6-6-6-6-6-6---------------------|
A |-7-7-7-7-7-7-7-7-----------------|---------------------------------|
E |---------------------------------|-------------5-5-7-7-7-7-7-7-7-7-|

G |---------------------------------|-----------------|
D |---7-7-7-----7-9\----------------|-----------------|
A |-9---------9---------------------|-----------------|
E |---------------------------------|-----------------|

G |---------------------------------|---------------------------------|
D |---------------------------------|---------------------------------|
A |---------------------------------|-----------------5---7---5-------|
E |-7-7---5-7-7---5-7-7---5-7-7---5-|-7-7---5-7-7---7---7---7---7---5-|

G |---------------------------------|---------------------------------|
D |---------------------------------|---------------------------------|
A |---------------------------------|-------------------------5---7---|
E |-7-7---5-7-7---5-7-7---5-7-7---5-|-7-7---5-7-7---5-7-7---7---7-----|

G |---------------------------------|---------------------------------|
D |---------------------------------|---------------------------------|
A |---------------------------------|---------------------------------|
E |---------------------------------|---------------------------------|

G |---------------------------------|---------------------------------|
D |---------------------------------|---------------------------------|
A |---------------------------------|---------------------------------|
E |---------------------------------|---------------------------------|

G |---------------------------------|---------------------------------|
D |---------------------------------|---------------------------------|
A |---------------------------------|-----------------5---7---5-------|
E |-7-7---5-7-7---5-7-7---5-7-7---5-|-7-7---5-7-7---7---7---7---7---5-|

G |---------------------------------|-----------------|
D |---------------------------------|-----------------|
A |---------------------------------|-----------------|
E |-7-7---5-7-7---5-7-7---5-7-7---5-|-7-7-7\----------|

CHORUS

......................................................I've got the cure
G |---------------------------------|---------------------------------|
D |---------------------------------|---------------------------------|
A |---------------------------------|-----------------5---7---5-7-8-9-|
E |-7-7---5-7-7---5-7-7---5-7-7---5-|-7-7---5-7-7---7---7---7---------|

G |---------------------------------|---------------------------------|
D |---------------------------------|---------------------------------|
A |-9-9-9-9-9-9-9-9-9-9-9-9-9-8-7-5-|---5-5-5-5-5-5-5-5-5-5-5-5-5-6-7-|
E |---------------------------------|---------------------------------|

G |---------------------------------|---------------------------------|
D |---------------------------------|-9-9-8-8-6-6---------------------|
A |-7-7-7-7-7-7-7-7-7-7-7-7-7-7-7-7-|-------------9-9-7-7-6-6---------|
E |---------------------------------|-------------------------9-9-7-6-|

G |---------------------------------|---------------------------------|
D |-------------------7-7-7-----7---|-9\------------------------------|
A |-----------------9---------9-----|---------------------------------|
E |-7-7-7-7-7-7-7-7-----------------|---------------------------------|

OUTRO:
G |----------------------------------|----------------------------------|
D |*---------------------------------|---------------------------------*|
A |*---------------------------------|-----------------5---7---5-------*|
E |--7-7---5-7-7---5-7-7---5-7-7---5-|-7-7---5-7-7---7---7---7---7---5--|

G |---------------------------------|---------------------------------|
D |---------------------------------|---------------------------------|
A |---------------------------------|-----------------5---7---5-------|
E |-7-7---5-7-7---5-7-7---5-7-7---5-|-7-7---5-7-7---7---7---7---7-5---|

Transcribed by Brian Camp
E-mail: cambrian@vianet.net.au
Suggest correction new What's this?
You can suggest a correction to this tab. Community and Mods will review your correction and vote to approve or reject it.
comments
We did not receive enough feedback on this tab! Please rate:
print report bad tab
1 2 3 4 5
guest
You may want to rate the tab now too:
select rating
Please do not post tabs as comments. Select "correction" instead!