Oops, an error
Loading. Please wait.

Section 5 Bus To Bondi intro tab

566 views 3 this week
2 commentsread comments
1 2 3 4 5
2 more votes to show rating
add to favorites
×
Save as Personal and add changes to this tab that will be seen only by you. Learn more ›
×
You can save this tab as Personal to edit and correct it or add notes. All changes will be seen only by you. Learn more »
launch autoscroll
font size
0
reset
how to read this tab
guitar tuner
edit
Autoscroll
slow
fast
+/-
esc
set tempo
stop
Difficulty
Section 5 (Bus to Bondi) - Midnight Oil

E--------------------------------------|
B--------------------------------------|
G--------------------------------------|
D------5-4-----3-----------------------|
A--0-3-----5-2---2-0-5-2---------------|
E------------------------3-------------|

Transcribed by Sean Kijurina

            
            
Suggest correction
Creating personal tab
Creating personal tab
You can edit any tab online and save it as your Personal.

You can edit, replace or remove any tab part or add personal notes – all changes will be seen only by you.

Personal tabs can be accessed anytime from any device, even offline.
Learn more »
Give kudos to tab author, rate the tab!
1 2 3 4 5
comments
print report bad tab
2 comments total.
0 reply
Flypool 10 Dec 27, 2007 07:47 AM

I do it in this
way:

E------------------------------------------|
B------------------------------------------|
G-------0-----------
-----------------------|
D---------4---0---2------0-----------------|
A--0-h3---------2----3-0---2---------------|
E-
---------------------------3-------------|

.. I dont know if this is the correct way, but sound much better than your
version.

Cheers!

0 reply
Flypool 10 Dec 27, 2007 07:49 AM

E------------------------------------------|
B------------------------------------------|
G-------0-------------------
---------------|
D---------4---0---2------0-----------------|
A--0-h3---------2----3-0---2---------------|
E---------
-------------------3-------------|

sorry, there it goes again

guest
Wanna post a correction for this tab? Suggest correction