Oops, an error
Loading. Please wait.

Shakers And Movers bass

version 1
version 1

Whole song

Interactive

45 views 1 this week
no commentswrite comment
1 2 3 4 5
3 more votes to show rating
add to favorites
×
Save as Personal and add changes to this tab that will be seen only by you. Learn more ›
×
You can save this tab as Personal to edit and correct it or add notes. All changes will be seen only by you. Learn more »
launch autoscroll
font size
0
reset
guitar tuner
edit
Autoscroll
slow
fast
+/-
esc
set tempo
stop
Author
SHAKERS AND MOVERS

Moginie/Garrett
Album : Blue Sky Mining
Bass : Bones Hillman

INTRO:
G |---------------------------------|---------------------------------|
D |-----------------5-5-5-4---4-4---|/1010109-7-7-7---5-5-5-5-5-5-5---|
A |---------------------------------|---------------------------------|
E |-3-----3/8---8-------------------|---------------------------------|

G |---------------------------------|---------------------------------|
D |---------------------------------|---------------------------------|
A |---------------------------------|-------0---0-0---5-5-5-7---7-7---|
E |-3---3--/8---8---3-3-3-0---0-0-0-|-3-3-3---------------------------|

VERSE 1:
.............Season's rhymes they anchor me
G |-----|---------------------------------|---------------------------------|
D |-----|---------------------------------|---------------------------------|
A |-17\-|-5-5---5---------3-3---3---------|-3-3-3-2-0-----------------------|
E |-----|---------3-----3---------0-----3-|---------------------------------|

Take you to the last wild place
G |---------------------------------|---------------------------------|
D |-----------------5-5-4-2---2-2---|/1010109-7-7-7---5-5-5-5-5-5-5---|
A |---------3-3-3-5-----------------|---------------------------------|
E |-3-3---3-------------------------|---------------------------------|

Cave man could a saint become
G |---------------------------------|---------------------------------|
D |---------------------------------|-------------------------7-7-7\--|
A |---------3---3-------------------|-3---3-2-------------------------|
E |-3-3---3---------3---3-0---0-0---|---------5---5---3---3-3---------|

We can dive into distant amoebas
G |---------------------------------|---------------------------------|
D |---------------------------------|-----------------7---------------|
A |-5-5---5---------3-3---3---------|-3-----2-0-----------------------|
E |---------3-3---3---------0-0---3-|---------------------------------|

PRE-CHORUS:
G |---------------------------------|
D |---------------------------------|
A |-7-7-7-7-7-5-----7-7-7-7-7-5-----|
E |---------------------------------|

CHORUS:
I can shake I can move
G |----------------------------------|----------------------------------|
D |*---------------------------------|---------------------------------*|
A |*---------------------------------|-------6---6-6-6-------5---5-5-5-*|
E |--0-0-0-3---3-3---0-0-0-1---1-1---|-0-0-0-----------0-0-0------------|

G |---------------------------------|-----------------|
D |---------------------------------|-----------------|
A |-------6---6-6-6-2-2-2-2-2-2-2-2-|-5-5-5-5-5-5-5-5-|
E |-0-0-0---------------------------|-----------------|

VERSE 2:
Our poet Henry Lawson
G |---------------------------------|---------------------------------|
D |-----------------5-5-5-2---2-2-2-|/1010109-7-7-7---5-5-5-5-5-5-5---|
A |---------3-3-3-------------------|---------------------------------|
E |-3-3-3---------------------------|---------------------------------|

Here they come
G |---------------------------------|---------------------------------|
D |---------------------------------|---------------------------------|
A |---------3---3-------------------|-------0---0-0---5-5-5-7---7-7---|
E |-3---3-----------3-3---0---0-0---|-3-3-3---------------------------|

Oh great god of development
G |---------------------------------|---------------------------------|
D |---------------------------------|---------------------------------|
A |---------3-3-3-------------------|---------------------------------|
E |-3-3-3-----------3-3-3-0---0-0---|/8---8-7-5---5---3-3-3-3-3-3-3---|

Coastline hosed down
G |---------------------------------|---------------------------------|
D |---------------------------------|---------------------------------|
A |---------3---3-------------------|---------------------------------|
E |-3---3-----------3-3-3-0---0-0---|/8---8-7-5---5---3-----3-5-5-5-5-|

Tomorrow's child
G |---------------------------------|-5-4-2---------------------------|
D |---------------------------------|-------5-4-2---------------------|
A |-5-5---5---------3-3---3---------|-------------3-2-----------------|
E |---------3-3---3---------0-0-----|---------------------------------|

PRE-CHORUS 2:
The storm is breaking now
G |---------------------------------|---------------------------------|
D |---------------------------------|---------------------------------|
A |-5-5-5-5-5-5-5-0-5-5-5-5-5-5-5-0-|-5-5-5-5-5-5-5-0-5-5-5-5-5-5-5-0-|
E |---------------------------------|---------------------------------|

G |---------------------------------|---------------------------------|
D |---------------------------------|---------------------------------|
A |-5-5-5-5-5-5-5-0-5-5-5-5-5-5-5-0-|-5-5-5-5-5-5-5-0-5-5-5-5/17171717|
E |---------------------------------|---------------------------------|

CHORUS:(x2)
I can shake I can move
G |----------------------------------|----------------------------------|
D |*---------------------------------|---------------------------------*|
A |*---------------------------------|-------6---6-6-6-------5---5-5-5-*|
E |--0-0-0-3---3-3---0-0-0-1---1-1---|-0-0-0-----------0-0-0------------|

G |---------------------------------|-----------------|
D |---------------------------------|-----------------|
A |-------6---6-6-0-2-2-2-2-2-2-2-2-|-5-5-5-5-5-5-5-5-|
E |-0-0-0---------------------------|-----------------|

OUTRO:
G |---------------------------------|---------------------------------|
D |-----------------5-5-5-2---2-2-2-|/1010109-7-7-7-7-5-5-5-5-5-5-5---|
A |---------------------------------|---------------------------------|
E |-3-----3/8---8-------------------|---------------------------------|

G |---------------------------------|---------------------------------|
D |---------------------------------|---------------------------------|
A |---------------------------------|-------0---0-0-0-5-5-5-7---7-7-7-|
E |-3---3--/8---8---3-3-3-0---0-0-0-|-3-3-3---------------------------|

G |-----------------7-7-7-9---9-9-9-|---------------------------------|
D |-5-5-5-7---7-7-7-----------------|---------------------------------|
A |---------------------------------|-------0---0-0-0-5-5-5-7---7-7---|
E |---------------------------------|-3-3-3---------------------------|

Transcribed by Brian Camp
E-mail: cambrian@vianet.net.au

            
            
Suggest correction
Creating personal tab
Creating personal tab
You can edit any tab online and save it as your Personal.

You can edit, replace or remove any tab part or add personal notes – all changes will be seen only by you.

Personal tabs can be accessed anytime from any device, even offline.
Learn more »
Give kudos to tab author, rate the tab!
1 2 3 4 5
comments
print report bad tab
guest
You may want to rate the tab now too:
select rating
Wanna post a correction for this tab? Suggest correction