Oops, an error
Loading. Please wait.

Stand In Line Bass Tab

541 views 3 this week
no commentswrite comment
1 2 3 4 5
please rate
add to favorites
launch autoscroll
font size
0
reset
guitar tuner
Autoscroll
slow
fast
+/-
esc
set tempo
stop
Help us to improve Ultimate-Guitar.com Take our survey!
×
Author
STAND IN LINE

Moginie/Hirst/Rotsey/Garrett
Album : Head Injuries
Bass : Andrew James

INTRO RIFF:
G |----------------------------------|-------------------5---6---7--10--|
D |*---------------------------------|---------------------------------*|
A |*-5---5---------------------------|-3-5---5---------3---4---5---8---*| x4
E |-----------------5-4-3-1----------|----------------------------------|

VERSE:
G |--------0-------------------------|-------0--------------------------|
D |*-----2---4-0---2-----------0-5-7-|-----2---4-0---2-----3-0-5-0-7-0-*|
A |*-0-3---------2---3-0-5-0-3-------|-0-3---------2---3-0-------------*| x6
E |----------------------------------|----------------------------------|

it's a pity 'bout the middle class
G |--------0-------------------------|-------0--------------------------|
D |*-----2---4-0---2-----------------|-----2---4-0---2-----------------*|
A |*-0-3---------2---3-0-5-----------|-0-3---------2---3-0-------------*| x4
E |----------------------------------|---------------------1------------|

CHORUS:
Everything's set...Everything's fine
G |---------------------------------|---------------------------------|
D |---------------------------------|---------------------------------|
A |---------------------------------|-----------------0-3---5---5-5---|
E |-5---------------3---------------|-0-------------------------------|

G |---------------------------------|---------------------------------|
D |---------------------------------|---------------------------------|
A |---------------------------------|-------------------3-------------|
E |-5---------------3---------------|-0---------------5---------------|

INTRO

PRE-VERSE 2:
G |-------0-------------------------|-------0-----------------5---5-7-|
D |-----2---4-0---2-----------0-5-7-|-----2---4-0---2-------7---7-----|
A |-0-3---------2---3-0-5-0-3-------|-0-3---------2---3-0-8-----------|
E |---------------------------------|---------------------------------|

VERSE 2:
G |--------0-------------------------|-------0--------------------------|
D |*-----2---4-0---2-----------------|-----2---4-0---2-----------------*|
A |*-0-3---------2---3-0-5-----------|-0-3---------2---3-0-------------*| x4
E |----------------------------------|---------------------1------------|

CHORUS 2:
G |---------------------------------|---------------------------------|
D |---------------------------------|---------------------------------|
A |---------------------------------|---------7-5-7---0-3---5---5-5-3-|
E |-5---------------3---------------|-0-------------------------------|

G |---------------------------------|---------------------------------|
D |---------------------------------|---------------------------------|
A |---------------------------------|---------7-5-7-----3-------------|
E |-5---------------3---------------|-0---------------5---------------|

INTERLUDE/GUITAR SOLO:
G |-----------------------------------|
D |*-----------------------------2---*|
A |*-5-5-5-5-5-5-5-5-5-5-5-5-0-3---3-*| x26
E |-----------------------------------|

G |-------0-------------------------|-------0-------------------------|
D |-----2---4-0---2-----------0-5-7-|-----2---4-0---2-----3-0-5-0-7-0-|
A |-0-3---------2---3-0-5-0-3-------|-0-3---------2---3-0-------------|
E |---------------------------------|---------------------------------|

G |-------0-------------------------|-------0-------------------------|
D |-----2---4-0---2-----------0-5-6-|-7---2---4-0---2-----3-0-5-0-7-0-|
A |-0-3---------2---3-0-5-0-3-------|---3---------2---3-0-------------|
E |---------------------------------|---------------------------------|

G |-------0-------------------------|-------0-------------------------|
D |-----2---4-0---2-----------0-5-7-|-----2---4-0---2-----------0-5-7-|
A |-0-3---------2---3-0-5-0-3-------|-0-3---------2---3-0-5-0-3-------|
E |---------------------------------|---------------------------------|

G |-------0-------------------------|---------------------------------|
D |-----2---4-0---2-----------0-5-6-|-7---5-6-7---5---7-7-7-7-7-7-7-7-|
A |-0-3---------2---3-0-5-0-3-------|---------------7-----------------|
E |---------------------------------|---------------------------------|

Everything's set....Everything's fine
G |---------------------------------|---------------------------------|
D |---------------------------------|---------------------------------|
A |---------------------------------|---------------------3---5-------|
E |---------------------------------|---------------------------------|

....A-a-a-a-a-a-h-h-h-h-h-h
G |---------------------------------|---------------------------------|
D |---------------------------------|---------------------------------|
A |---------------------------------|---------------------3---5-------|
E |-5-------------------------------|---------------------------------|

Everything's set....Everything's fine
G |---------------------------------|---------------------------------|
D |---------------------------------|---------------------------------|
A |---------------------------------|---------7-5-7---0-3---5---5-5-3-|
E |-5---------------3---------------|-0-------------------------------|

G |---------------------------------|---------------------------------|
D |---------------------------------|---------------------------------|
A |---------------------------------|---------7-5-7-----3-------------|
E |-5---------------3---------------|-0---------------5---------------|

INTRO RIFF:
G |---------------------------------|-------------------5---6---7--10-|
D |---------------------------------|---------------------------------|
A |-5---5---------------------------|-3-5---5---------3---4---5---8---|
E |----------------5-4-3-1----------|---------------------------------|

G |---------------------------------|------------------|
D |---------------------------------|------------------|
A |-5---5---------------------------|-3-5---5----------|
E |----------------5-4-3-1----------|------------------|

OUTRO:
G |-----------------1-3-1-----------------|
D |---------0-1-3-4-------4-3-1-0---------|
A |-0-1-2-4-----------------------4-2-1-0-|
E |---------------------------------------|

Transcribed by Brian Camp
E-mail: cambrian@vianet.net.au
Suggest correction
Give kudos to tab author, rate the tab!
1 2 3 4 5
comments
print report bad tab
guest
You may want to rate the tab now too:
select rating
Please do not post tabs as comments. Select "correction" instead!