Oops, an error
Loading. Please wait.

The Dead Heart bass

version 1
version 1

Whole song

Interactive

891 views 3 this week
no commentswrite comment
1 2 3 4 5
3 more votes to show rating
add to favorites
×
Save as Personal and add changes to this tab that will be seen only by you. Learn more ›
×
You can save this tab as Personal to edit and correct it or add notes. All changes will be seen only by you. Learn more »
launch autoscroll
font size
0
reset
guitar tuner
edit
Autoscroll
slow
fast
+/-
esc
set tempo
stop
Author
DEAD HEART

Hirst/Moginie/Garrett
Album : Diesel and Dust
Bass : Peter Gifford

INTRO:
G |---------------------------------|---------------------------------|
D |---------------------------------|---------------------------------|
A |-2-2-2-2-2-2-2-2-2-2-2-2-2-2-2-2-|-2-2-2-2-2-2-2-2-2-2-2-0-0-0-0-0-|
E |---------------------------------|---------------------------------|

G |---------------------------------|---------------------------------|
D |---------------------------------|---------------------------------|
A |-2-2-2-2-2-2-2-2-2-2-2-2-2-2-2-2-|-2-2-2-2-2-2-2-2-2-2-2-2-2-2-2-2-|
E |---------------------------------|---------------------------------|

Do do do
G |---------------------------------|---------------------------------|
D |---------------------------------|---------------------------------|
A |-2-2-2-2-2-2-2-2-2-2-2-2-2-2-2-2-|-2-2-2-2-2-2-2-2-2-2-2-2-2-2-2-2-|
E |---------------------------------|---------------------------------|

G |---------------------------------|---------------------------------|
D |---------------------------------|---------------------------------|
A |-2-2-2-2-2-2-2-2-2-2-2-0-0-0-0-0-|-2-2-2-2-2-2-2-2-2-2-2-2-2-0-2---|
E |---------------------------------|-------------------------------0-|

G |-----------------------------------|---------------------------------|
D |*---------------------------------*|---------------------------------|
A |*-2-2-2-2-------------------------*|-2-2-2-2-------------------------|
E |----------0-0-0-0-5-5-5-5-5-5-5-5--|---------0-0-0-0-5-5-5-5-2-2-2-2-|

G |---------------------------------|
D |---------------------------------|
A |-2-2-2-2-2-2-2-2-2-2-2-2-2-2-2---|
E |-------------------------------2-|

VERSE:
We don't serve your country
G |---------------------------------|---------------------------------|
D |---------------------------------|---------------------------------|
A |-2-2-2-2-2-2-2-2-2-2-2-2-2-2-2-2-|-2-2-2-2-2-2-2-2-2-2-2-2-2-2-2-2-|
E |---------------------------------|---------------------------------|

White man came took everyone
G |---------------------------------|---------------------------------|
D |---------------------------------|---------------------------------|
A |-2-2-2-2-2-2-2-2-2-2-2-----------|-2-2-2-2-2-2-2-2-2-2-2-0-0-0-0-0-|
E |-----------------------2-2-2-5-2-|---------------------------------|

G |---------------------------------|
D |---------------------------------|
A |-2-2-2-2-2-2-2-2-2-2-2-2-2-2-2-2-|
E |---------------------------------|

We don't serve your country
G |---------------------------------|---------------------------------|
D |---------------------------------|---------------------------------|
A |-2-2-2-2-2-2-2-2-2-2-2-2-2-2-2-2-|-2-2-2-2-2-2-2-2-2-2-2-2-2-2-2-2-|
E |---------------------------------|---------------------------------|

White man came took everything
G |---------------------------------|---------------------------------|
D |---------------------------------|---------------------------------|
A |-2-2-2-2-2-2-2-2-2-2-2-2-2-2-2---|-2-2-2-2-2-2-2-2-2-2-2-0-0-0-0-0-|
E |-------------------------------2-|---------------------------------|

G |---------------------------------|
D |---------------------------------|
A |-2-2-2-2-2-2-2-2-2-2-2-2-2-2-2-2-|
E |---------------------------------|

CHORUS:
We carry in our hearts
G |---------------------------------|---------------------------------|
D |---------------------------------|---------------------------------|
A |-2-2-2-2-------------------------|-----------------5-5-5-5-4-4-4-4-|
E |---------5-5-5-3-3-3-3-3-3-3-3-3-|-2-2-2-2-2-2-2-2-----------------|

We follow in the steps
G |---------------------------------|---------------------------------|
D |---------------------------------|---------------------------------|
A |-2-2-2-2-------------------------|-----------------5-5-5-5-4-4-4-4-|
E |---------5-5-5-3-3-3-3-3-3-3-3-3-|-2-2-2-2-5-5-5-5-----------------|

G |---------------------------------|---------------------------------|
D |---------------------------------|---------------------------------|
A |-2-2-2-2-2-2-2-2-2-2-2-2-0-0-0-0-|-2-2-2-2-2-2-2-2-2-2-2-2-2-2-2-2-|
E |---------------------------------|---------------------------------|

VERSE 2:
G |---------------------------------|---------------------------------|
D |---------------------------------|---------------------------------|
A |-2-2-2-2-2-2-2-2-2-2-2-2-2-2-2-2-|-2-2-2-2-2-2-2-2-2-2-2-2-2-2-2-2-|
E |---------------------------------|---------------------------------|

G |---------------------------------|---------------------------------|
D |---------------------------------|---------------------------------|
A |-2-2-2-2-2-2-2-2-2-2-2-0-0-0-0-0-|-2-2-2-2-2-2-2-2-2-2-2-2-2-2-2-2-|
E |---------------------------------|---------------------------------|

G |---------------------------------|
D |---------------------------------|
A |-2-2-2-2-2-2-2-2-2-2-2-2-2-2-2-2-|
E |---------------------------------|

We don't need protection
G |---------------------------------|---------------------------------|
D |---------------------------------|---------------------------------|
A |-2-2-2-2-2-2-2-2-2-2-2-2-2-2-2-2-|-2-2-2-2-2-2-2-2-2-2-2-2-2-2-2-2-|
E |---------------------------------|---------------------------------|

G |---------------------------------|---------------------------------|
D |---------------------------------|---------------------------------|
A |-2-2-2-2-2-2-2-2-2-2-2-2-2-0-0-0-|-2-2-2-2-2-2-2-2-2-2-2-2---------|
E |---------------------------------|-------------------------0-2-3-0-|

G |---------------------------------|
D |---------------------------------|
A |-2-2-2-2-2-2-2-2-2-2-2-0-0-0-0-0-|
E |---------------------------------|

CHORUS 2:
G |---------------------------------|---------------------------------|
D |---------------------------------|---------------------------------|
A |-2-2-2-2-------------------------|-----------------5-5-5-5-4-4-4-4-|
E |---------5-5-5-3-3-3-3-3-3-3-3-3-|-2-2-2-2-2-2-2-2-----------------|

G |----------------------------------|----------------------------------|
D |*---------------------------------|---------------------------------*|
A |*-2-2-2-2-------------------------|-----------------5-5-5-5-4-4-4-4-*| x3
E |----------5-5-5-3-3-3-3-3-3-3-3-3-|-2-2-2-2-5-5-5-5------------------|

INTERLUDE:
...................B-r-o-k-e-n
G |---------------------------------|---------------------------------|
D |---------------------------------|---------------------------------|
A |-2-2-2-2-2-2-2-2-2-2-2-2-2-2-2-2-|-2-2-2-2-2-2-2-2-2-2-2-2-2-2-2---|
E |---------------------------------|-------------------------------2-|

Do do do..................mining companies
G |----------------------------------|----------------------------------|
D |*---------------------------------|---------------------------------*|
A |*-2-2-2-2-2-2-2-2-2-2-2-0-0-0-0-0-|-2-2-2-2-2-2-2-2-2-2-2-2-2-2-2-2-*|
E |----------------------------------|----------------------------------|

G |-----------------------------------|---------------------------------|
D |*---------------------------------*|---------------------------------|
A |*-2-2-2-2-2-2-2-2-2-2-2-0-0-0-0-0-*|-2-2-2-2-2-2-2-2-2-2-2-2---------|
E |-----------------------------------|-------------------------0-2-3-0-|

..........................more say than people
G |---------------------------------|-----------------------------------|
D |---------------------------------|*---------------------------------*|
A |-2-2-2-2-2-2-2-2-2-2-2-2-0-0-0-0-|*-2-2-2-2-------------------------*|
E |---------------------------------|----------0-0-0-0-5-5-5-5-5-5-5-5--|

G |---------------------------------|---------------------------------|
D |---------------------------------|---------------------------------|
A |-2-2-2-2-------------------------|-2-2-2-2-2-2-2-2-2-2-2-2-2-2-2-2-|
E |---------0-0-0-0-5-5-5-5-2-2-2-2-|---------------------------------|

.......................................forty thousand years can make a
G |---------------------------------|---------------------------------|
D |---------------------------------|---------------------------------|
A |-2-2-2-2-------------------------|-2-2-2-2-------------------------|
E |---------0-0-0-0-5-5-5-5-5-5-5-5-|---------0-0-0-0-5-5-5-5-2-2-2-2-|

difference to the state of things
G |---------------------------------|
D |---------------------------------|
A |-2-2-2-2-2-2-2-2-2-2-2-2-0-0-0-0-|
E |---------------------------------|

OUTRO:
G |-----------------------------------|---------------------------------|
D |*---------------------------------*|---------------------------------|
A |*-2-2-2-2/7-7-7-7-0-0-0-0-0-0-0-0-*|-2-2-2-2/7-7-7-7-0-0-0-0---------|
E |-----------------------------------|-------------------------2-2-2-2-|

G |---------------------------------|-----------------------------------|
D |---------------------------------|*---------------------------------*|
A |-2-2-2-2-2-2-2-2-2-2-2-2-2-2-2-0-|*-2-2-2-2-------------------------*|
E |---------------------------------|----------0-0-0-0-5-5-5-5-5-5-5-5--|

G |---------------------------------|---------------------------------|
D |---------------------------------|---------------------------------|
A |-2-2-2-2-------------------------|-2-2-2-2-2-2-2-2-2-2-2-2-2-2-2-2-|
E |---------0-0-0-0-5-5-5-5-2-2-2-2-|---------------------------------|

Do do do...............................................The dead heart
G |-----------------------------------|---------------------------------|
D |*---------------------------------*|---------------------------------|
A |*-2-2-2-2-------------------------*|-2-2-2-2-------------------------|
E |----------0-0-0-0-5-5-5-5-5-5-5-5--|---------0-0-0-0-5-5-5-5-2-2-2-2-|

lives here
G |---------------------------------|---------------------------------|
D |---------------------------------|-----------------7-7-7-7-7-7-7-7-|
A |-2-2-2-2-2-2-2-2-2-2-2-0-0-2---0-|-2-2-2-2/7-7-7-7-----------------|
E |-----------------------------2---|---------------------------------|

G |---------------------------------|---------------------------------|
D |---------------------------------|---------------------------------|
A |-2-2-2-2-------------------------|-2-2-2-2-------------------------|
E |---------0-0-0-0-5-5-5-5-5-5-5-5-|---------0-0-0-0-5-5-5-5-2-2-2-2-|

G |---------------------------------|
D |---------------------------------|
A |-2-2-2-2-2-2-2-2-2-2-2-2-2-2-2-2-|
E |---------------------------------|

Transcribed by Brian Camp
E-mail: cambrian@vianet.net.au


            
            
Suggest correction
Creating personal tab
Creating personal tab
You can edit any tab online and save it as your Personal.

You can edit, replace or remove any tab part or add personal notes – all changes will be seen only by you.

Personal tabs can be accessed anytime from any device, even offline.
Learn more »
Give kudos to tab author, rate the tab!
1 2 3 4 5
comments
print report bad tab
guest
You may want to rate the tab now too:
select rating
Wanna post a correction for this tab? Suggest correction