Oops, an error
Loading. Please wait.

Underwater Bass Tab

124 views 1 this week
no commentswrite comment
1 2 3 4 5
please rate
add to favorites
launch autoscroll
font size
0
reset
guitar tuner
Autoscroll
slow
fast
+/-
esc
set tempo
stop
Help us to improve Ultimate-Guitar.com Take our survey!
×
Author
UNDERWATER

Midnight Oil
Album : Breathe
Bass : Bones Hillman

INTRO:
G |-----------------------|
D |-----------------------|
A |-9-9-9-9-9-9-9-9-9-9-0-|
E |-----------------------|

VERSE:
G |---------------------------------|---------------------------------|
D |---------------------------------|---------------------------------|
A |-7---9-9-0-------7---9-9-0-------|-7---9-9-0-------7---9-9-0-------|
E |-----------2-2-------------2-2---|-----------2-2-------------2-2---|

G |---------------------------------|---------------------------------|
D |-----------------7---7-----------|---------------------------------|
A |-7---9-9-0-------------9-7-9-----|-7---9-9-0-------7---9-9-0-------|
E |-----------2-2-------------------|-----------2-2-------------2-2---|

G |---------------------------------|---------------------------------|
D |-----------------7---7-----------|---------------------------------|
A |-7---9-9-0-------------9-7-9-7---|-7---9-9-0-------7---9-9-0-------|
E |-----------2-2-------------------|-----------2-2-------------2-2---|

G |---------------------------------|---------------------------------|
D |---------------------------------|-----------------7---7-----------|
A |-7---9-9-0-------7---9-9-0-------|-7---9-9-0-------------9-7-9-----|
E |-----------2-2-------------2-2---|-----------2---------------------|

G |---------------------------------|---------------------------------|
D |---------------------------------|-----------------7---7-----------|
A |-7---9-9-0-------7---9-9-0-------|-7---9-9-0-------------9-7-9-----|
E |-----------2-2-------------2-2---|-----------2-2-------------------|

(Drums join)
G |----------------------------------|----------------------------------|
D |*---------------------------------|---------------------------------*|
A |*-7---9-9-0-------7---9-9-0-------|-7---9-9-0-------7---9-9-0-------*|
E |------------2-2-------------2-2---|-----------2-2-------------2-2----|

G |---------------------------------|---------------------------------|
D |---------------------------7-----|---------------------------------|
A |-7---9-9-0-------7---9-9-0---9-7-|-7---7-9-0-------7---7-9-0-------|
E |-----------2-2-------------------|-----------2-2-------------2-2---|

There is room for make believe
G |----------------------------------|------------------------------------|
D |*---------------------------------|-----------------7---7-------------*|
A |*-7---7-9-0-------7---7-9-0-------|-7---7-9-0-------------9-7-9-7-7---*|
E |------------2-2-------------2-2---|-----------2------------------------|

CHORUS:
G |---------------------------------|---------------------------------|
D |---------------------------------|---------------------------------|
A |-9-9-9-9-9-9-9-9-9-9-9-9-9-9-9---|-7-7-9-0---------7-7-9-0-------7h|
E |-------------------------------9-|---------2-2---9---------2-2-----|

G |---------------------------------|---------------------------------|
D |---------------------------------|---------------7---7-------------|
A |-9---9-9-9-9-9-9-9-9-9-9-9-9-9---|-7-7-9-0-------------9-7-9-7-7-7h|
E |-------------------------------9-|---------2-2---------------------|

G |---------------------------------|---------------------------------|
D |---------------------------------|---------------------------------|
A |-9---9-9-9-9-9-9-9-9-9-9-9-9-9-9-|-9-9-9-9-8-8-8-8-6-6-6-6-4-4-4-4-|
E |---------------------------------|---------------------------------|

G |---------------------------------|------------------|
D |-----------------6-6-6-6-6-6-6-6-|-6-6-6-6-6--------|
A |-2-2-2-2-1-1-1-1-----------------|------------------|
E |---------------------------------|------------------|

PRE-VERSE 2:
G |---------------------------------|---------------------------------|
D |---------------------------------|---------7-9-7-------------------|
A |-7-9-9-0---------7-9-9-0---------|-7---9-9---------9---9-9-7-9-----|
E |---------2---------------2-------|---------------------------------|

VERSE 2:
G |---------------------------------|---------------------------------|
D |---------------------------------|---------7-9-7-------------------|
A |-7---9-9-0-------7---9-9-0-------|-7---9-9---------9---9-9-7-9-----|
E |-----------2---------------2-----|---------------------------------|

G |---------------------------------|---------------------------------|
D |-------------------------7-9-7---|---------------------------------|
A |-7---9-9-0-------7---9-9---------|-7---9-9-0-------7---9-9-0-------|
E |-----------2---------------------|-----------2---------------2-----|

There is room for make believe
G |----------------------------------|------------------------------------|
D |*---------------------------------|---------------------------9-7-----*|
A |*-7---9-9-0-------7---9-9-0-------|-7---9-9-0-------7---9-9-0---------*|
E |------------2---------------2-----|-----------2------------------------|

CHORUS 2:
G |---------------------------------|---------------------------------|
D |---------------------------------|---------------------------------|
A |-9-9-9-9-9-9-9-9-9-9-9-9-9-9\----|-7-9-9-0-------7---9-9-0-------7h|
E |---------------------------------|---------2---------------2-------|

G |---------------------------------|---------------------------------|
D |-----------------------------7---|-------------------------7-------|
A |-9---9-9-9-9-9-9-7h9-9---7h9-----|-7-9-9-0-------7---9-9-0---9-----|
E |---------------------------------|---------2-----------------------|

G |---------------------------------|---------------------------------|
D |---------------------------------|---------------------------------|
A |-9-9-9-9-9-9-9-9-9-9-9-9-9-9-9-9-|-9-9-9-9-8-8-8-8-6-6-6-6---------|
E |---------------------------------|-------------------------9-9-9-9-|

G |---------------------------------|------------------|
D |-----------------6-6-6-6-6-6-6-6-|-6-6-6-6-6--------|
A |---------------------------------|------------------|
E |-7-7-7-7-6-6-6-6-----------------|------------------|

MIDDLE/GUITAR SOLO:
G |----------------------------------|----------------------------------|
D |*---------------------------------|---------------------------------*|
A |*-9-7---------------------99--7-9-|-------4-----------5-------------*| x4
E |------9-7-5-5-7-5---5-2-----9-----|-2-0-2-------2-0-2-------2-0-2----|

Underwater....overland
G |---------------------------------|---------------------------------|
D |---------------------------------|---------------------------------|
A |---------------------------------|---------------------------------|
E |---------------------------------|---------------------------------|

G |---------------------------------|---------------------------------|
D |---------------------------------|---------------------------------|
A |---------------------------------|-------------------------2-------|
E |---------------------------------|---------------------------2-0---|

OUTRO:
G |---------------------------------|---------------------------------|
D |---------------7---7-7-----------|---------------7---7-------------|
A |-7-9-9-0---------------7-9-7-7---|-7-9-9-0-------------9-7-9-9-9-9-|
E |---------2-2-2-------------------|---------2-2-2-------------------|

G |---------------------------------|---------------------------------|
D |---------------7-7-7-7-----------|---------------------------------|
A |-7-9-9-0---------------7-9-9-9---|-9-9-9-9-9-9-9-9-----------------|
E |---------2-0-2-------------------|-----------------0-2-2-0-2-5-----|

G |---------------------------------|---------------------------------|
D |---------------------------------|---------------7---7-------------|
A |-7-9-9-0-------7---9-9-0-------7-|---9-9-0-------------9-7-9-7-----|
E |---------2-2-2-----------2-2-2---|---------2-2-2-------------------|

G |----------------------------------|----------------------------------|
D |*---------------------------------|---------------7---7-------------*|
A |*-7-9-9-0-------7---9-9-0-------7-|---9-9-0-------------9-7---------*|
E |----------2-2-2-----------2-2-2---|---------2-2-2-----------5-2-0----|

G |---------------------------------|---------------------------------|
D |---------------------------------|---------------7---7-------------|
A |-7-9-9-0-------7---9-9-0-------7-|---9-9-0-------------9-7-9-7-----|
E |---------2-2-2-----------2-2-2---|---------2-2-2-------------------|

G |---------------------------------|---------------------------------|
D |---------------------------------|---------------------------------|
A |-7-9-9-0-------7---9-9-0-------7-|---9-9-0-------7---9-9-0-------7-|
E |---------2-2-2-----------2-2-2---|---------2-2-2-----------2-2-2---|

(Repeat to fade)
G |----------------------------------|----------------------------------|
D |*---------------------------------|---------------------------------*|
A |*---9-9-0-------7---9-9-0-------7-|---9-9-0-------7---9-9-0-------7-*|
E |----------2-2-2-----------2-2-2---|---------2-2-2-----------2-2-2----|

Transcribed by Brian Camp
E-mail: cambrian@vianet.net.au
Suggest correction
Give kudos to tab author, rate the tab!
1 2 3 4 5
comments
print report bad tab
guest
You may want to rate the tab now too:
select rating
Wanna post a correction for this tab? Suggest correction