Oops, an error
Loading. Please wait.

Wedding Cake Island tab

version 1
version 1

Whole song

Interactive

4,539 views 6 this week
2 commentsread comments
1 2 3 4 5
1 last vote to show rating
add to favorites
×
Save as Personal and add changes to this tab that will be seen only by you. Learn more ›
×
You can save this tab as Personal to edit and correct it or add notes. All changes will be seen only by you. Learn more »
launch autoscroll
font size
0
reset
how to read this tab
guitar tuner
backing track
0:00
0:00
edit
Autoscroll
slow
fast
+/-
esc
set tempo
stop
Author
Wedding Cake Island
By Midnight Oil

  Intro

  Eb                     Gm                   C			Dm
e|-------------------|-------------------|-0---0---0---1-----|------------------|
B|-4---4---4---------|-3---3---3---------|-1---1---1---------|-3---3---3--------|
G|-3---3---3---0-----|-3---3---3---------|-0---0---0---------|-2---2---2--------|
D|-5---5---5---------|-5---5---5---------|-2---2---2---------|-3---3---3--------|
A|-6---6---6---------|-------------------|-------------------|------------------|
E|-------------------|-------------------|-------------------|------------------|

   Bb                   G
e|------------------|-0---0---0---------|
B|-3---3---3----1---|-0---0---0---0-----|
G|-3---3---3----2---|-------------------|
D|-3---3---3--------|-------------------|
A|-5---5---5--------|-------------------|
E|------------------|-------------------|

  C
e|-5---5---5---5-|-5---5---5---5----|
B|-5---5---5---5-|-5---5---5---5----|
G|-5---5---5---5-|-5---5---5---5----|
D|-3---3---3---3-|-3---3---3---3----|
A|---------------|------------------|
E|---------------|------------------|

VERSE 1
  C                     Am
e|--------------------|-------------|
B|--------------------|-------------|
G|-0--2--0----0----0--|-0-2---2---2-|
D|--------------------|-------------|
A|--------------------|-------------|
E|--------------------|-------------|

     F                              C
e|-----1---0---1---3------0-----|-0----0----0-|
B|------------------------------|-------------|
G|------------------------------|-------------|
D|------------------------------|-------------|
A|------------------------------|-------------|
E|------------------------------|-------------|

  C                             Am
e|------------------------------|-------------------------|
B|------------------------------|-------------------------|
G|-0---2-------0----------------|-------------------------|
D|------------------3-------2---|-0----------2---2------2-|
A|------------------------------|-------------------------|
E|------------------------------|-------------------------|

   Dm                  G
e|-5------------------|-7-----------------|
B|----6---------------|----8--------------|
G|-------7--7---------|-------7--7--------|
D|--------------------|-------------------|
A|--------------------|-------------------|
E|--------------------|-------------------|

  Eb			  Gm              C                    Dm
e|-------------------|--------------|--------------------|-----------------|
B|-------------------|--------------|-5---5---5---5------|7---7---7---7--5-|
G|-8---8---8---8-----|-7---7---7----|--------------------|-----------------|
D|-------------------|--------------|--------------------|-----------------|
A|-------------------|--------------|--------------------|-----------------|
E|-------------------|--------------|--------------------|-----------------|

  Bb                 G                    C
e|------------------|-----------------|----------------------|
B|-3---3---3--------|-----------------|-11/13---13---13---13-|
G|-------------5----|-4---4---4---0---|----------------------|
D|------------------|-----------------|----------------------|
A|------------------|-----------------|----------------------|
E|------------------|-----------------|----------------------|

VERSE 2

  C                          Am
e|-------------------------|-----------|
B|-0---2---0----0----0-----|-----------|
G|-------------------------|-0--2----0-|
D|-------------------------|-----------|
A|-------------------------|-----------|
E|-------------------------|-----------|

  F                              C
e|------1---0---1---3-------0---|-0-----0-----0-|
B|------------------------------|---------------|
G|------------------------------|---------------|
D|------------------------------|---------------|
A|------------------------------|---------------|
E|------------------------------|---------------|

                                Am
e|----------------------------|-------------------|
B|----------------------------|-------------------|
G|-0---2-------0--------------|-------------------|
D|---------------------3------|--2----2----2----2-|
A|----------------------------|-------------------|
E|----------------------------|-------------------|


   Dm                         G
e|----5----------------------|--7-------------|
B|--------6------------------|------8---------|
G|------------7---7----------|----------7---7-|
D|---------------------------|----------------|
A|---------------------------|----------------|
E|---------------------------|----------------|


   F             Am       D
e|--------------------------------|-------------------|
B|--------------------------------|-------------------|
G|-------------------5------------|-------------------|
D|-5--7-----7----7-----------4----|--4----4----4----4-|
A|--------------------------------|-------------------|
E|--------------------------------|-------------------|

     F           Am        D
e|--------------------------------|-------------------|
B|---------------------------7----|--7----7----7----7-|
G|-------------------5------------|-------------------|
D|----7----7----7-----------------|-------------------|
A|--------------------------------|-------------------|
E|--------------------------------|-------------------|


   F          Am      D      B7     BbM7      F          Am    D
e|---------------------------5----|--5---5---5---5---|---------------------|
B|--------------------------------|------------------|---------------------|
G|-------------------5------------|------------------|--------------5------|
D|----7---7---7-------------------|------------------|--7---7---7--------4-|
A|--------------------------------|------------------|---------------------|
E|--------------------------------|------------------|---------------------|


e|----------------------|
B|----------------------|
G|----------------------|
D|-4----4----4----4-----|
A|----------------------|
E|----------------------|

VERSE 3

 Bm                    			G			 D
e|-2---4---2---2---2-|------------------|-3---2---3---5------2-|-2-----2-----2-|
B|-------------------|------------------|----------------------|---------------|
G|-------------------|-4----4----4----4-|----------------------|---------------|
D|-------------------|------------------|----------------------|---------------|
A|-------------------|------------------|----------------------|---------------|
E|-------------------|------------------|----------------------|---------------|

  Bm				 Em 			A
e|-------------------------|---7-------------|-9-------------|---------------------|
B|-------------------------|--------8--------|-----10--------|---------------------|
G|--2---4---2-----2---0----|-----------9---9-|---------9---9-|---------------------|
D|-------------------------|-----------------|---------------|-2----2----2---4---4-|
A|-------------------------|-----------------|---------------|---------------------|
E|-------------------------|-----------------|---------------|---------------------|

  F					  Em
e|--------------------------------|------------------------------3-|
B|--------------------------------|--------------------------------|
G|--------------------------------|--------------------------------|
D|--------------------------------|--------------------------------|
A|----------0----0----------3---2-|-----------------------0--------|
E|-1------------------------------|-0--------3---3-----------------|

  Am
   vBend
e|-3-------5-----3------3----3-|
B|-----------------------------|
G|-----------------------------|
D|-----------------------------|
A|-----------------------------|
E|-----------------------------|

 Dm
e|--5-----------------------5----|---3------------------3-|
B|------6-----------6------------|--------5---0---0-------|
G|----------7---7----------------|------------------------|
D|-------------------------------|------------------------|
A|-------------------------------|------------------------|
E|-------------------------------|------------------------|

  Am
  vBend     		    v
e|-3-----5---5---3--------3---3------3-|
B|-------------------------------------|
G|-------------------------------------|
D|-------------------------------------|
A|-------------------------------------|
E|-------------------------------------|

   F			    Em                         Am
    vBend
e|--5---7---7----7----7-|------12-------------|----8---8--8------|
B|----------------------|-----------12--12----|----8---8--8---10-|
G|----------------------|---12-------------12-|----9---9--9------|
D|----------------------|---------------------|------------------|
A|----------------------|---------------------|------------------|
E|----------------------|---------------------|------------------|

e|---------------5----5----5----|
B|-10--8--10--8--8----8----8----|
G|------------------------------|
D|------------------------------|
A|------------------------------|
E|------------------------------|

  Dm				G                 Am
e|-----------------------5-|----------------|--------7-----7-|--5----5----5----5-|
B|-------6--6--6-----------|----------------|-----------8--8-|--5----5----5----5-|
G|--7--7-------------------|------8---------|--------------9-|--5----5----5----5-|
D|--7----------------------|-7--9-----9--7--|-----9-------10-|-------------------|
A|-------------------------|----------------|-10-------------|-------------------|
E|-------------------------|----------------|----------------|-------------------|


  F                        Em	 Am
e|-1----1----1----1-----|--1---0---|-10----10----10-----|-10----10----10----10-|
B|----------------------|----------|-------------------------------------------|
G|----------------------|----------|-------------------------------------------|
D|----------------------|----------|-------------------------------------------|
A|----------------------|----------|-------------------------------------------|
E

Dm				G                 Am (play 2 times)
e|-----------------------5-|----------------|--------7-----7-|--5----5----5----5-|
B|-------6--6--6-----------|----------------|-----------8--8-|--5----5----5----5-|
G|--7--7-------------------|------8---------|--------------9-|--5----5----5----5-|
D|--7----------------------|-7--9-----9--7--|-----9-------10-|-------------------|
A|-------------------------|----------------|-10-------------|-------------------|
E|-------------------------|----------------|----------------|-------------------|


F                        Em	 Am		(play Until end)
e|-1----1----1----1-----|--1---0---|-10----10----10-----|-10----10----10----10-|
B|----------------------|----------|-------------------------------------------|
G|----------------------|----------|-------------------------------------------|
D|----------------------|----------|-------------------------------------------|
A|----------------------|----------|-------------------------------------------|
E|----------------------|----------|-------------------------------------------|


Eb: xx5343	  F : 133211
Gm: xx5333	  B7: x21202
C : x32010    BbM7: x1323x
Dm: xx0231	  D : xx0232
Bb: x13331	  Bm: x24432
G : 300003	  A : x02220
Am: x02210	  Em: 022000
Suggest correction
Creating personal tab
Creating personal tab
You can edit any tab online and save it as your Personal.

You can edit, replace or remove any tab part or add personal notes – all changes will be seen only by you.

Personal tabs can be accessed anytime from any device, even offline.
Learn more »
Give kudos to tab author, rate the tab!
1 2 3 4 5
comments
print report bad tab
2 comments total.
0 reply
shamus66 71 Dec 03, 2007 01:43 PM

I must have been on crack when I did this. It is crap and i am working on the correction as we speak

0 reply
crowned.red 10 Jun 20, 2015 03:27 AM

didn't like this contribution

guest
You may want to rate the tab now too:
select rating
Wanna post a correction for this tab? Suggest correction