Oops, an error
Loading. Please wait.

Start Saving bass

173 views 1 this week
no commentswrite comment
1 2 3 4 5
3 more votes to show rating
add to favorites
×
Save as Personal and add changes to this tab that will be seen only by you. Learn more ›
×
You can save this tab as Personal to edit and correct it or add notes. All changes will be seen only by you. Learn more »
launch autoscroll
font size
0
reset
guitar tuner
edit
Autoscroll
slow
fast
+/-
esc
set tempo
stop
Author
Difficulty
Verse 1

Morning comes

I'm lying with my friends

with every smile

were trying to pretent

we'll never pour
G|-----------------------|
D|-----------------------|
A|-----------------------|
E|-4-4-4-4-6-6-6-6-------|
    
or go our separate ways
G|----------------------------|
D|----------------------------|
A|-6----8----10----11-11-11-11|
E|----------------------------|
    
but time says we'll just be fine
G|-------------------------------------|
D|-------------------------------------|
A|---------------------6-6--8-8-10-11--|
E|--4-4-4-4-6-6-6-6-6------------------|

____________________________________________________________________________

Verse 2

We grew so fast

were tracking cross the world

we don't look back except

maybe for that girl

but one day we will see
G|---------------------|
D|---------------------|
A|---------------------|
E|-4-4-4-4--6-6-6-6----|

the forest for the trees
G|--------------------------|
D|--------------------------|
A|--6-6-8-8-10-11-11-11-11--|
E|--------------------------|

and time says that we'll just be fine
G|------------------------------------|
D|------------------------------------|
A|------------------6-6-8-8--10---11--|
E|-4-4-4-4-6-6-6-6--------------------|

____________________________________________________________________________

Chorus

So please start saving
G|--------------------|
D|--------------------|
A|----------6-6-6-6---|
E|-4-4-4-4------------|

we've got one last moment
G|---------------------|
D|---------------------|
A|-----------6-6-6-6---|
E|-4-4-4-4-------------|

to play our dreams out all alone yeah
G|-------------------------------|
D|-------------------------------|
A|----------6-6-6-6--------------|
E|-4-4-4-4----------6--6--6--6---|

we'll cast off smoothly
G|---------------------|
D|---------------------|
A|----------6-6-6-6----|
E|-4-4-4-4-------------|

we'll sail completely
G|----------------------|
D|----------------------|
A|---------6-6-6-6------|
E|-4-4-4-4--------------|

with no one daring
G|----------------------|
D|----------------------|
A|----------6-6-6-6-----|
E|-4-4-4-4--------------|

to face the sad sad state of the world
G|----------------------|
D|----------------------|
A|-4--4--4-4------------|
E|------------4-4-4-4---|

that i know is coming to stay
G|----------------------|
D|----------------------|
A|-4--4--4-4------------|
E|------------4-4-4-4---|

I'm gona leave here now
G|---------------------------------|
D|---------------------------------|
A|-----6--6--6-6-6-6---------------|
E|---------------------------------|

___________________________________________________________________________

Bridge

G|-----------------------------------------------------------------|
D|-----------------------------------------------------------------|
A|-------5/6-6-6-6------5/6-6-6-6-------5/6-6-6-6------------------|
E|--44-66-----------44-66----------44-66-----------6-6-6-6-6-6-6-6-|

|-----------------------------------------------------------------|
D|-----------------------------------------------------------------|
A|-------5/6-6-6-6------5/6-6-6-6-------5/6-6-6-6------------------|
E|--44-66-----------44-66----------44-66-----------6-6-6-6-6-6-6-6-|

____________________________________________________________________________

Chorus

so plaese start saving

we've got one last moment

to play our dreams out all alone yeah
G|-------------------------------------|
D|-------------------------------------|
A|--------------------------6-6-6-6-6-6|
E|-------------------------------------|

the sky is falling
G|---------------------------------|
D|---------------------------------|
A|--------------------6-6-6-6------|
E|-4-4-4-4-------------------------|

My heads exploring
G|-------------------|
D|-------------------|
A|----------6-6-6-6--|
E|-4-4-4-4-----------|

December sunshine on the water
G|--------------------------|
D|--------------------------|
A|---------6-6-6-6----------|
E|-4-4-4-4----------6-6-6-6-|

we'll cast off smoothly
G|-------------------|
D|-------------------|
A|----------6-6-6-6--|
E|-4-4-4-4-----------|

we'll sail completly
G|-------------------|
D|-------------------|
A|----------6-6-6-6--|
E|-4-4-4-4-----------|

No one daring
G|-------------------|
D|-------------------|
A|----------6-6-6-6--|
E|-4-4-4-4-----------|

to face the sad sad state of the world
G|----------------------|
D|----------------------|
A|-4--4--4-4------------|
E|------------4-4-4-4---|

that i know is coming to stay
G|----------------------|
D|----------------------|
A|-4--4--4-4------------|
E|------------4-4-4-4---|

well its a sad sad state of the world
G|----------------------|
D|----------------------|
A|-4--4--4-4------------|
E|------------4-4-4-4---|

I'm gona leave here now
G|----------------------|
D|----------------------|
A|--6--6--6-6-6-6-------|
E|----------------------|

            
            
Suggest correction
Creating personal tab
Creating personal tab
You can edit any tab online and save it as your Personal.

You can edit, replace or remove any tab part or add personal notes – all changes will be seen only by you.

Personal tabs can be accessed anytime from any device, even offline.
Learn more »
Give kudos to tab author, rate the tab!
1 2 3 4 5
comments
print report bad tab
guest
You may want to rate the tab now too:
select rating
Wanna post a correction for this tab? Suggest correction