Oops, an error
Loading. Please wait.

Become What You Hate Tab

3,531 views 1 this week
no commentswrite comment
1 2 3 4 5
please rate
add to favorites
launch autoscroll
font size
0
reset
how to read this tab
guitar tuner
Tab Pro tools
  • play this tab
  • loop segment
  • change instrument
  • show fretboard
  • metronome
×
Best way to learn
"Become What You Hate"
Autoscroll
slow
fast
+/-
esc
set tempo
stop
Contributor
-------------------------------------------------------------------------------
                   Become What You Hate a - Midtown
-------------------------------------------------------------------------------
Tabbed by:Phat Stud 55
Email:phatstud55@gmail.com

Tuning:half step down low to high Eb Ab Db Gb Bb eb


Intro
-Natural Harmonic-
eb|--12+--------------------------0------------------------------------------|
Bb|--------------------------------------------------------------------------|
Gb|--------------------------------------------------------------------------|
Db|--------------------------------------------------------------------------|
Ab|--------------------------------------------------------------------------|
Eb|-------------------------------12+----------------------------------------|
After the first harmonic that you hit it doesn't really matter what
harmonic you hit after that as long as it is a E.

In backround with flanger
eb|------------------------------------|
Bb|------------------------------------|
Gb|------------------------------------|
Db|-----xx-44-6------------------------|
Ab|-2---xx-22-4---xx--66-7-x-----------|
Eb|-0-------------xx--44-5-x-----------|

Full Intro

eb|----------------------------|
Bb|----------------------------|
Gb|----------------------------|
Db|-----xx-44-6----------------|
Ab|-2---xx-22-4---xx--66-7-x---|x3
Eb|-0-------------xx--44-5-x---|

On third time through don't hit the 5 stay on the 4 then play this 
fill into the verse

Fill into verse

eb|-------------------|
Bb|-------------------|
Gb|-------------------|
Db|--7-6-4------------|
Ab|--------7----------|
Eb|-------------------|

Verse 1  rhythms may not be correct but are very close.  I'm sure
that you can figure it out real quick.

eb|--------------------------------------------------------------------------|
Bb|--------------------------------------------------------------------------|
Gb|--------------------------------------------------------------------------|
Db|-----------4-4-xx---------------------6-6-xx-4-xx-4-xx--------------------|
Ab|-2-xx-2-xx-2-2-xx-6-xx-6-xx-7-x-7-xx--4-4-xx-2-xx-2-xx--2-xx-2------------|
Eb|-0-xx-0-xx--------4-xx-4-xx-5-x-5-xx--------------------0-xx-0------------|

eb|-------------------------------------------------------------------------------|
Bb|-------------------------------------------------------------------------------|
Gb|-------------------------------------------------------------------------------|
Db|-----------4-4----------------------6-6-xx-4-xx-4-xx-2-2-2-2-2-----------------|
Ab|-2-xx-2-xx-2-2--6-xx-6-xx-7-x-7-xx--4-4-xx-2-xx-2-xx-0-0-0-0-0-4-4-4-4--7-7-7-7|
Eb|-0-xx-0-xx------4-xx-4-xx-5-x-5-xx-----------------------------2-2-2-2--5-5-5-5|

Chorus

eb|-------------------------------------------------------------------|
Bb|-------------------------------------------------------------------|
Gb|-------------------------------------------------------------------|
Db|-----------------4-4-4-4-4-4-4-4-----------------------------------|x2
Ab|-2-2-2-2-2-2-2-2-2-2-2-2-2-2-2-2-6-6-6-6-6-6-6-6-7-7-7-7-7-7-7-7---|
Eb|-0-0-0-0-0-0-0-0-----------------4-4-4-4-4-4-4-4-5-5-5-5-5-5-5-5---|

Bridge

eb|----------------------------|
Bb|----------------------------|
Gb|----------------------------|
Db|-----xx-44-6----------------|Yah!
Ab|-2---xx-22-4---xx--66-7-x---|
Eb|-0-------------xx--44-5-x---|

eb|----------------------------|
Bb|----------------------------|
Gb|----------------------------|
Db|-----xx-44-6----------------|
Ab|-2---xx-22-4---xx--66-7-x---|
Eb|-0-------------xx--44-5-x---|

Verse 2-same as the first but with slightly different rhythms.

eb|--------------------------------------------------------------------------|
Bb|--------------------------------------------------------------------------|
Gb|--------------------------------------------------------------------------|
Db|-----------4-4-xx---------------------6-6-xx-4-xx-4-xx--------------------|
Ab|-2-xx-2-xx-2-2-xx-6-xx-6-xx-7-x-7-xx--4-4-xx-2-xx-2-xx--2-xx-2------------|
Eb|-0-xx-0-xx--------4-xx-4-xx-5-x-5-xx--------------------0-xx-0------------|

eb|-------------------------------------------------------------------------------|
Bb|-------------------------------------------------------------------------------|
Gb|-------------------------------------------------------------------------------|
Db|-----------4-4----------------------6-6-xx-4-xx-4-xx-2-2-2-2-2-----------------|
Ab|-2-xx-2-xx-2-2--6-xx-6-xx-7-x-7-xx--4-4-xx-2-xx-2-xx-0-0-0-0-0-4-4-4-4--7-7-7-7|
Eb|-0-xx-0-xx------4-xx-4-xx-5-x-5-xx-----------------------------2-2-2-2--5-5-5-5|

Chorus

eb|------------------------------------------------------------------|
Bb|------------------------------------------------------------------|
Gb|------------------------------------------------------------------|
Db|----------------4-4-4-4-4-4-4-4-----------------------------------|x2 Yah!
Ab|2-2-2-2-2-2-2-2-2-2-2-2-2-2-2-2-6-6-6-6-6-6-6-6-7-7-7-7-7-7-7-7---|
Eb|0-0-0-0-0-0-0-0-----------------4-4-4-4-4-4-4-4-5-5-5-5-5-5-5-5---|


Half time feel chorus

eb|--------------------------------------------------------------|
Bb|--------------------------------------------------------------|
Gb|--------------------------------------------------------------|
Db|---------4-4-4-4----------------------------------------------|
Ab|-2-2-2-2-2-2-2-2-6-6-6-6-7-7-7-7------------------------------|
Eb|-0-0-0-0---------4-4-4-4-5-5-5-5------------------------------|

eb|-----------------------------------------------------------------|
Bb|-----------------------------------------------------------------|
Gb|-----------------------------------------------------------------|
Db|---------4-4-4-4-------------------------------------------------|
Ab|-2-2-2-2-2-2-2-2-6-6--7------------------------------------------|
Eb|-0-0-0-0---------4-4--5------------------------------------------|

Interlude
HIT HARD!
eb|---------------------------------------------------------------------|
Bb|---------------------------------------------------------------------|
Gb|---------------------------------------------------------------------|
Db|--6-6-6--666---------6-6-6-666-------------9--7-6-7-6~~--------------|x2
Ab|--4-4-4--444--7-7-7--4-4-4-444-7--4----7-----------------------------|
Eb|--------------5-5-5------------5--2----5-----------------------------|

eb|--------------------------------------------------------------------------|
Bb|--------------------------------------------------------------------------|
Gb|--------------------------------------------------------------------------|
Db|--------------------------------------------------------------------------|
Ab|-----4-4------6-6------7-7------------------------------------------------|
Eb|-2-2-2-2--4-4-4-4--5-5-5-5------------------------------------------------|
    P.M      P.M      P.M

Lead Guitar  Play at the same time as the Rhythm
Natural Harmonics
eb|--------------7+------12+--------------------------------------------------|
Bb|--7+b-full----------------------------------------------------------------|
Gb|--------------------------------------------------------------------------|
Db|--------------------------------------------------------------------------|
Ab|--------------------------------------------------------------------------|
Eb|--------------------------------------------------------------------------|
By now you're wondering how to bend a natural harmonic. Heres how:
There are two ways-
1.You can go behind the nut and push down on the string that is ringing
to tighten it up and do the bend.
2.After you hit the harmonic put your finger down very lightly right
on the fret and you can bend just like a normal note.  This one's tough
to explain.


Rhythm Guitar  Play at the same time as the Lead
Basically the Chorus Chords
eb|--------------------------------------------------------------------------|
Bb|--------------------------------------------------------------------------|
Gb|--------------------------------------------------------------------------|
Db|---------4-4-4-4-------------------------4-4-4-4--------------------------|
Ab|-2-2-2-2-2-2-2-2-6-6-6-6-7-7-7-7-2-2-2-2-2-2-2-2-6-6-6-6-777-7/-----------|
Eb|-0-0-0-0---------4-4-4-4-5-5-5-5-0-0-0-0---------4-4-4-4-555-5/-----------|


Chorus Lead-The clean sounding guitar in the backround. This is
also played during the interlude with the harmonics.
-HIT HARD! emphasis on the higher strings.-
eb|----------|
Bb|-----9----|
Gb|-----9----|
Db|-----9----|x15
Ab|-----7----|
Eb|-x-x-5----|

Now the chorus again- play with the lead above
eb|-----------------------------------------------|
Bb|-----------------------------------------------|
Gb|-----------------------------------------------|
Db|---------4-4-4-4-------------------------------|x3
Ab|-2-2-2-2-2-2-2-2-6-6-6-6-7-7-7-7---------------|
Eb|-0-0-0-0---------4-4-4-4-5-5-5-5---------------|

eb|-----------------------------------------------|
Bb|-----------------------------------------------|
Gb|-----------------------------------------------|
Db|---------4-4-4-4-------------------------------|
Ab|-2-2-2-2-2-2-2-2-6-6-6-6--6--7-----------------|
Eb|-0-0-0-0---------4-4-4-4--4--5-----------------|

Outro

eb|------------------------------|
Bb|------------------------------|
Gb|------------------------------|
Db|-----xx-44-6------------------|
Ab|-2---xx-22-4---xx--66-7-x-x\--|x2
Eb|-0-------------xx--44-5-x-x\--|

eb|----------------------|
Bb|----------------------|
Gb|----------------------|
Db|----4-6---------------|
Ab|-2--2-4--6-7----------|x3
Eb|-0-------4-5----------|

eb|----------------------|
Bb|----------------------|
Gb|----------------------|The End
Db|----4-6---------------|
Ab|-2--2-4--6-7---2-2----|
Eb|-0-------4-5---0-0----|


Enjoy.  Email me if there's any questions.

| /  slide up
| \  slide down
| h  hammer-on
| p  pull-off
| ~  vibrato
| +  harmonic
| x  Mute note
===============================================================================
comments
We did not receive enough feedback on this tab! Please rate:
print report bad tab
1 2 3 4 5
I want to post or [tab]
guest
You may want to rate the tab now too:
select rating
Please do not post tabs as comments. Select "correction" instead!