Oops, an error
Loading. Please wait.

Come On Tab

795 views 3 this week
no commentswrite comment
1 2 3 4 5
accurate
x 3
add to favorites
launch autoscroll
font size
0
reset
how to read this tab
guitar tuner
Tab Pro tools
  • play this tab
  • loop segment
  • change instrument
  • show fretboard
  • metronome
×
Best way to learn
"Come On"
Autoscroll
slow
fast
+/-
esc
set tempo
stop
COME ON - Midtown

By: Alan (Alanzh@hotmail.com)
                                 x2
e|---------------------------------|-----------------------------------------|
B|--------3-5--------3-5-3----5----|-----------------------------------------|
G|--5-5-------5-5----------5----5--|---5-5-----------------------------------|
D|--5---5---------5--------5-------|---5-5------------3----------------------|
A|--3----------------------3-------|---3-3--(strum)---3----------------------|
E|---------------------------------|------------------1-(Strum)--------------|
                                       step out side and listen... 
Dist.
e|---------------------------------------------------------------------------|
B|---------------------------------------------------------------------------|
G|-----------------------.-.-.------------------.-.-.------------------------|
D|--5---------3----------3-3-3-5----------------5-5-5-3----------------------|
A|--5---------3----------3-3-3-5----------------5-5-5-3----------------------|
E|--3---------1----------1-1-1-3----------------3-3-3-1----------------------|
    When I..  yesterday        Me to say to you       Cause you wanted...  

  Second part of intro (all PM, except the chords, where .=Pm) 
e|---------------------------------------------------------------------------|
B|---------------------------------------------------------------------------|
G|------5-----5-----5-----5p4------5-----5-----5-----5p4------5-----5^-------|
D|-----------------------------2-2---2-2---2-2---2-2-------------------------|
A|--3-3---3-3---3-3---3-3----------------------------------------------------|
E|--------------------------------------------------------3-3---3-3---3-3-3-3|
              
                               x1  
e|--------------------------------|
B|--------------------------------|
G|---5-------.-.----.-.----.-.----|
D|---5-5-3---5-5-5--5-5-5--3-3-3--|
A|---3-5-3---5-5-5--5-5-5--3-3-3--|
E|-----3-1---3-3-3--3-3-3--1-1-1--|

 (play this second time instead of above) 
e|------------------3------------------------3-------------------------------|
B|------------5-----------5------------5-----------5-------------------------|
G|------5------------------------5------------------------5----5^------------|
D|---------------------------2-2---2-2---2-2---2-2---------------------------|
A|--3-3---3-3---3-3---3-3----------------------------------------------------|
E|----------------------------------------------------3-3---3-3--------------|

                               x1  
e|--------------------------------|
B|--------------------------------|
G|---5-------.-.----.-.----.-.----|
D|---5-5-3---5-5-5--5-5-5--3-3-3--|
A|---3-5-3---5-5-5--5-5-5--3-3-3--|
E|-----3-1---3-3-3--3-3-3--1-1-1--|

Then Guitar one plays (Figure 1)
e|----------------------------------------------5----------------------------|
B|--8-8-888--6-6-5-5--8-8-888--6-6-5-5--6p5-------5--------------------------|
G|------------------------------------------5--------------------------------|
D|---------------------------------------------------------------------------|
A|---------------------------------------------------------------------------|
E|---------------------------------------------------------------------------|

While Guitar two plays this x2 (Figure 1)
e|---------------------------------------------------------------------------|
B|---------------------------------------------------------------------------|
G|--5----------9-----------------------.-.-5--.-.----.-.-5--.-.--------------|
D|--5----------9------------5----------5-5-5--5-5-5--5-5-5--5-5-5------------|
A|--3-(strum)--7-(strum)----5----------5-5-3--5-5-5--5-5-3--5-5-5------------|
E|--------------------------3-(strum)--3-3----3-3-3--3-3----3-3-3------------|

Verse                                           x2    End on this second time
e|---------------------------------------------------------------------------|
B|----........----........-------------------------|-------------------------|
G|--5-55555555--9-99999999----........----........-|--5----------------------|
D|--5-55555555--9-99999999--5-55555555--3-33333333-|--5--5--3----------------|
A|--3-33333333--7-77777777--5-55555555--3-33333333-|--3--5--3----------------|
E|--------------------------3-33333333--1-11111111-|-----3--1----------------|
    When all you feel is pain...

Chorus- same as verse, except no PM. Then go back to Figure 1.
play through verse and chorus again then..
e|---------------------------------------------------------------------------|
B|---------------------------------------------------------------------------|
G|-------------------------------....----------------------------------------|
D|-5------------------7------3---3333----------------------------------------|
A|-5------------------7------3---3333----------------------------------------|
E|-3------------------5------1---1111----------------------------------------|
   Something is wrong..
                                             couple of times, rhytym changes
e|---------------------------------------------------------------------------|
B|-..-.----------------------------------------------------------------------|
G|-55-55--..-.---..-.--..-.---..-.--..-.---..-.--..-.------------------------|
D|-55-55--22-22--55-55-55-55--77-77-77-77--33-33-33-33-----------------------|
A|-33-33--22-22--55-55-55-55--77-77-77-77--33-33-33-33-----------------------|
E|--------00-00--33-33-33-33--55-55-55-55--11-11-11-11-----------------------|
  You never listen...

e|---------------------------------------------------------------------------|
B|----------------------------------------.-.-.-.-.-.-.-.--.-.-.-.-.-.-.-.---|
G|-5----7----9----------------------------5-5-5-5-5-5-5-5--5-5-5-5-5-5-5-5---|
D|-5----7----9----------------------------5-5-5-5-5-5-5-5--5-5-5-5-5-5-5-5---|
A|-3----5----7--12-10-8-3-----------------3-3-3-3-3-3-3-3--2-2-2-2-2-2-2-2---|
E|---------------------------------------------------------------------------|
   You could have any other boy...

e|---------------------------------------------------------------------------|
B|------------------------------------.-.-.-.-.-.-.-.--.-.-.-.-.-.-.-.-------|
G|--.-.-.-.-.-.-.-.-.-.-.-.-.-.-.-.---5-5-5-5-5-5-5-5--7-7-7-7-7-7-7-7-------|
D|--5-5-5-5-5-5-5-5-5-5-5-5-5-5-5-5---5-5-5-5-5-5-5-5--7-7-7-7-7-7-7-7-------|
A|--5-5-5-5-5-5-5-5-5-5-5-5-5-5-5-5---3-3-3-3-3-3-3-3--5-5-5-5-5-5-5-5-------|
E|--3-3-3-3-3-3-3-3-3-3-3-3-3-3-3-3------------------------------------------|

                     Play this with little lead thing every now and then
e|-------------------|--------------------(----15)---------------------------|
B|-------------------|--------------------(-15---)---------------------------|
G|--.-.-.-.-.-.-.-.--|--5-5-5-5----------------------------------------------|
D|--3-3-3-3-3-3-3-3--|--5-5-5-5--2-2-2-2--5-5-5-5--3-3-3-3-------------------|
A|--3-3-3-3-3-3-3-3--|--3-3-3-3--2-2-2-2--5-5-5-5--3-3-3-3-------------------|
E|--1-1-1-1-1-1-1-1--|-----------0-0-0-0--3-3-3-3--1-1-1-1-------------------|
                      How can you say...
       
e|---------------------------------------------------------------------------|
B|---------------------------------------------------------------------------|
G|----------------5-5-5-5------------------------------------------5---------|
D|----------------5-5-5-5--2-2-2-2--5-5-5-5--3-3-3-3---------------5---------|
A|----------------3-3-3-3--2-2-2-2--5-5-5-5--3-3-3-3---------------3---------|
E|-------------------------0-0-0-0--3-3-3-3--1-1-1-1-------------------------|
                 What you gonna say...                      ....true

This should all be pretty much right
comments
We did not receive enough feedback on this tab! Please rate:
print report bad tab
1 2 3 4 5
I want to post or [tab]
guest
You may want to rate the tab now too:
select rating
Please do not post tabs as comments. Select "correction" instead!