Oops, an error
Loading. Please wait.

Empty Like The Ocean Tab

version 1
version 1

Intro

Whole song

Interactive

301 views 1 this week
1 commentread comment
1 2 3 4 5
x 3
add to favorites
launch autoscroll
font size
0
reset
how to read this tab
guitar tuner
Autoscroll
slow
fast
+/-
esc
set tempo
stop
Help us to improve Ultimate-Guitar.com Take our survey!
×
Author
-------------------------------------------------------------------------------
                             Empty Like The Ocean - Midtown
-------------------------------------------------------------------------------
Tabbed by:Good Apollo
Email:ollieThebum64@msn.com

Tuning:Standard

e|-----10----------10--------------------------------------------------------|
B|-9-8-----8-9-9p8----9------------------------------------------------------|
G|---------------------------------------------------------------------------|
D|---------------------------------------------------------------------------|
A|---------------------------------------------------------------------------|
E|---------------------------------------------------------------------------|

Thats about as simple as it is
Suggest correction
Give kudos to tab author, rate the tab!
1 2 3 4 5
comments
print report bad tab
1 comment total.
0 reply
thegreatindoors 41 Nov 21, 2005 09:22 PM

try this

e|-----------------------------
B|-----15-------15-----------
G|---12-----12-----12-------
D|-14----1414-14---------
A|---------------------------------------------------|
E|---------------------------------------------------|

guest
You may want to rate the tab now too:
select rating
Wanna post a correction for this tab? Suggest correction