Oops, an error
Loading. Please wait.

Empty Like The Ocean Tab

version 2
version 2

Intro

Whole song

Interactive

980 views 3 this week
no commentswrite comment
1 2 3 4 5
accurate
x 2
add to favorites
launch autoscroll
font size
0
reset
how to read this tab
guitar tuner
Tab Pro tools
  • play this tab
  • loop segment
  • change instrument
  • show fretboard
  • metronome
Autoscroll
slow
fast
+/-
esc
set tempo
stop
Contributor
                SONG NAME - Band Name
--------------------------------------------------------------------------------------|
Tabbed by:SynisterGates19
Email:Jss_montgomery@yahoo.com

Tuning:Standard
intro part1:Lead
e|------12------------12-------12------------12-|
B|---10---10----10-10---10---10--10----10-10----|
G|-11--------11------------11-------11----------|
D|----------------------------------------------|
A|----------------------------------------------|
E|----------------------------------------------|
Intro part2:Rythem
e|-------------------------------------------------------------------------|
B|-------------------------------------------------------------------------|
G|------------------------------------------------------6-6-6-6-6-6-6-6-6--|
D|4-4-4-4-4-4-4-4-4-4-4-4-4-4-4-4-4-4-7-7-7-7-7-7-7-7-7-6-6-6-6-6-6-6-6-6--|
A|4-4-4-4-4-4-4-4-4-4-4-4-4-4-4-4-4-4-7-7-7-7-7-7-7-7-7-4-4-4-4-4-4-4-4-4--|
E|2-2-2-2-2-2-2-2-2-2-2-2-2-2-2-2-2-2-5-5-5-5-5-5-5-5-5--------------------|
intro Part3:Rythem
e|-------------------------------------------------------------------------|
B|-------------------------------------------------------------------------|
G|-------------------------------------------------------------------------|
D|4-4-4-4-4-4-4-4-4-4-4-4-4-4-4-4-4-4-4-4-4-4-4-4--------------------------|
A|4-4-4-4-4-4-4-4-4-4-4-4-4-4-4-4-4-4-4-4-4-4-4-4--------------------------|
E|2-2-2-2-2-2-2-2-2-2-2-2-2-2-2-2-2-2-2-2-2-2-2-2--------------------------|
Verse part1:1 time
e|-----12---------12------12---------12------------------------------------|
B|---10--10--10-10--10--10--10--10-10---10---------------------------------|
G|-11------11---------11------11-------------------------------------------|
D|-------------------------------------------------------------------------|
A|-------------------------------------------------------------------------|
E|-------------------------------------------------------------------------|
Verse part2:2 times
e|-------------------------------------------------------------------------|
B|-------------------------------------------------------------------------|
G|-------------------------------------------------------------------------|
D|-4-4-4-4-4-4-4-4-4--x-x-x-x----------------------------------------------|
A|-4-4-4-4-4-4-4-4-4--x-x-x-x----------------------------------------------|
E|-2-2-2-2-2-2-2-2-2--x-x-x-x----------------------------------------------|
pre-chorus part1:
e|-------------------------------------------------------------------------|
B|-------------------------------------------------------------------------|
G|-------------------------------------------------------------------------|
D|-------------------------------------------------------------------------|
A|---------------------------------4-4-4-4-4-4-4-4-4-4-4-4-4-4-4-4---------|
E|-2-2-2-2-2-2-2-2-5-5-5-5-5-5-5-5-----------------------------------------|
   ...............................................................
chorus part 1:Rythem
e|-------------------------------------------------------------------------|
B|-------------------------------------------------------------------------|
G|---------------------------------6-6-6-6-6-6-6-6-6-6-6-6-6-6-6-6---------|
D|-4-4-4-4-4-4-4-4-7-7-7-7-7-7-7-7-6-6-6-6-6-6-6-6-6-6-6-6-6-6-6-6---------|
A|-4-4-4-4-4-4-4-4-7-7-7-7-7-7-7-7-4-4-4-4-4-4-4-4-4-4-4-4-4-4-4-4---------|
E|-2-2-2-2-2-2-2-2-5-5-5-5-5-5-5-5-----------------------------------------|
Chorus part1:lead
e|-------------------------------------------------------------------------|
B|-------------5---5--------------5----------------------------------------|
G|---2--2-1-2b---2----2-1b---2--2---2-2-1h2--------------------------------|
D|--4--4-------------------4--4-------------2------------------------------|
A|-------------------------------------------------------------------------|
E|-------------------------------------------------------------------------|
solo:
e|----------------12--12----------------12---------------------------------|
B|---10--10-9-10b---10--10---9b---10--10--10-10-9h10-----------------------|
G|-11--11------------------9----11--11--------------9----------------------|
D|-------------------------------------------------------------------------|
A|-------------------------------------------------------------------------|
E|-------------------------------------------------------------------------|
these are all the parts you will need to play the song. listen to it to find out the order.
| /  slide up
| \  slide down
| h  hammer-on
| p  pull-off
| ~  vibrato
| +  harmonic
| x  Mute note
============================================================================
comments
We did not receive enough feedback on this tab! Please rate:
print report bad tab
1 2 3 4 5
I want to post or [tab]
guest
You may want to rate the tab now too:
select rating
Please do not post tabs as comments. Select "correction" instead!