Oops, an error
Loading. Please wait.

Give It Up Bass Tab

version 1
version 1

Whole song

890 views 3 this week
1 commentread comment
1 2 3 4 5
accurate
x 3
add to favorites
launch autoscroll
font size
0
reset
guitar tuner
Autoscroll
slow
fast
+/-
esc
set tempo
stop
Help us to improve Ultimate-Guitar.com Take our survey!
×
Author
Hey every body this is my first so here goes,

This is a great song with a cool bassline.
I thinks its the fist bass tab for this song out there.
All right except for im missing a couple runs.
Standard tuning
G
D
A
E
Bass doesnt start immediately Guitar chops a b sixteen times
Intro
(0:10)
G----------------6--------------------------------------------------|
D----8868-868-868-8-------------------------------------------------|
A-------------------9989-986-686------------------------------------|
E-------------------------------96----------------------------------|

G----------------6--------------------------------------------------|
D----8868-868-868-8-------------6-----------------------------------|
A-------------------9989-989-989------------------------------------|
E-------------------------------------------------------------------|

Verse x2
(0:22)
G-------------------------------------------------------------------|
D-------------------------------------------------------------------|
A--1111111111111111-------------------------------------------------|
E-------------------2222222222222222--------------------------------|

After second time do this for the the pre-pre chorus
(0:35-40)
G-------------------------------------------------------------------|
D---------------------868-------------------------------------------|
A-1/16-------------------9------------89----------------------------|
E-------------------------------------------------------------------|

Verse again
pre pre chorus thing again

Chorus x2
(0:58)
G-------------------------------------------------------------------|
D---868--6--------------------666-----------------------------------|
A----------99999999-66666-999---------------------------------------|
E-------------------------------------------------------------------|

Pre-verse
(1:12)
G--------------6----------------------------------------------------|
D--8868-868-868--8--------------------------------------------------|
A-------------------------------------------------------------------|
E-------------------------------------------------------------------|

Verse x1
on second time play this
G-------------------------------------------------------------------|
D-------------------------------------------------------------------|
A-11111111/44444444-------------------------------------------------|
E-------------------2222222222222222--------------------------------|

Verse x2
Right after play this
G--------------------|
D-------------chop8--|
A-1~-----------------|
E-------2~-----------|

Chorus
at the end play this
G-----------------------|
D-----------------------|
A-----6---8---6---4---1-|
E-----------------------|

Bridge
G---------------------------------|
D---------------------------------|
A---------------------------------|
E---6/0--then-4----6----8---------|play this part 4 times

during guitar solo
G
D-----8h6p8-8h6p8-8h6p6-10-11-11-10-10  x8, plays with guitar
A
E

intro x1

modified verse x2
G------------------------------------|
D------------------------------------|
A--111111111111/4444/9999999999999999
E------------------------------------

outtro
G----------------|
D--8868-868-868~-|
A----------------|
E----------------|


Thanks for looking e-mail me w/ questions comments or corrections at
madisonjd@vcu.edu
Suggest correction
Give kudos to tab author, rate the tab!
1 2 3 4 5
comments
print report bad tab
1 comment total.
0 reply
repsac_hoppus 10 wrote on December 13 2005, 12:33 am

great intro

guest
You may want to rate the tab now too:
select rating
Please do not post tabs as comments. Select "correction" instead!