Oops, an error
Loading. Please wait.

Give It Up Tab

version 1
version 1

Solo

Whole song

3,403 views 3 this week
3 commentsread comments
1 2 3 4 5
accurate
x 5
add to favorites
launch autoscroll
font size
0
reset
how to read this tab
guitar tuner
Tab Pro tools
  • play this tab
  • loop segment
  • change instrument
  • show fretboard
  • metronome
Autoscroll
slow
fast
+/-
esc
set tempo
stop
ok so this took me 20 minutes to tab out. it's a really easy song to play.
i'm pretty sure it's correct. it sounds perfect when you play it. if you have
any questions/comments email me at iBLiNKEDndMESTup@aol.com. oh and one more
thing. the solo is just the solo in general. it's played the same way during
the whole thing but altered a little here and there with some bends and crap.
so fool around with it and listen to the song to get the whole thing.

~ let ring
* Palm mute
h Hammer on
B bend

standard EADGBe tuning

INTRO strum down for 6 counts of 8..only twice before bass starts
E-----------------------------------------------------------------------|
B-----------------------------------------------------------------------|
G-----------------------------------------------------------------------|
D-8---------------------------------------------------------------------|
A-8---------------------------------------------------------------------|
E-6---------------------------------------------------------------------|

VERSE 1                --->              Right After Verse
E-----------------------------------------------------------------------|
B-----------------------------------------------------------------------|
G----------------------------------------10-11-10-8-6-5-2---------------|
D-8--4--8--4--3—-8~-----------------------------------------------------|
A-8--4--8--4--3—-8~-----------------------------------------------------|
E-6--2--6--2--1—-6~-----------------------------------------------------|

PRE-CHORUS - "Give it up give it up"
E-----------------------------------------------------------------------|
B-----------------------------------------------------------------------|
G-----------------------------------------------------------------------|
D-8--4--8--4--3—-4------------------------------------------------------|
A-8--4--8--4--3—-4------------------------------------------------------|
E-6--2--6--2--1—-2------------------------------------------------------|

CHORUS - "It's not me you're waiting for"
E-----------------------------------------------------------------------|
B-----------------------------------------------------------------------|
G-----------------------------------------------------------------------|
D-8--4--3--4--6--8--4---------------------------------------------------|
A-8--4--3--4--6--8--4---------------------------------------------------|
E-6--2--1--2--4--6--2---------------------------------------------------|

Verse 2
E-----------------------------------------------------------------------|
B---------9h7—9h7-------------------------------------------------------|
G-----------------------------------------------------------------------|
D-8*--------------------------------------------------------------------|
A-8*--------------------------------------------------------------------|
E-6*--------------------------------------------------------------------|
(palm mute twice and then open once really fast for 1 ½ counts of 8. Listen to the pattern)

Pre-chorus
Chorus

Bridge (strum once each. Really on piano but this is for guitar.
E-----------------------------------------------------------------------|
B-----------------------------------------------------------------------|
G-----------------------------------------------------------------------|
D--4--6--8--------------------------------------------------------------|
A--4--6--8--------------------------------------------------------------|
E--2--4--6--------------------------------------------------------------|

Solo (chorus is played behind it also)
E-------------------------------------------------------------------|
B—11h9--11—11h9--11—11h9--11--13--14--14--13--13--------------------|
G-------------------------------------------------------------------|
D-------------------------------------------------------------------|
A-------------------------------------------------------------------|
E-------------------------------------------------------------------|

Play chorus and then intro a couple times
End on:
E-----------------------------------------------------------------------|
B-----------------------------------------------------------------------|
G-----------------------------------------------------------------------|
D-8---------------------------------------------------------------------|
A-8---------------------------------------------------------------------|
E-6---------------------------------------------------------------------|


peace out cub scouts
comments
print report bad tab
3 comments total.
0 reply
apathynext wrote on September 24 2004, 12:00 am

Pretty far off...but you got a couple of the chords right. Into behind the bass is ||--6---6--6---6--6---6-8-9-8-6----||-6---6--6---6--6---6----|
||o---9------9------9-----------9-o||---9------9------9------|
||---------------------------------||------------------------|
||---------------------------------||------------------------|
||o-------------------------------o||------------------------|
||---------------------------------||------------------------|

0 reply
apathynext wrote on September 24 2004, 12:00 am

Hit the wrong button. That was the solo, and you need to copy it into notepad.

Intro behind bass:

||-------------------||
||o-3-3-3-3-3-3-3-3-o||
||--3-3-3-3-3-3-3-3--||
||-------------------||
||o-----------------o||
||-------------------||

Verse 1 uses A# (6-8-8) and F# (high x-9-11-11)

Prechorus is A# and F# (low 2-4-4)

I haven't had a chance to figure out the chorus.

Beginning of the solo (the only part you tabbed) starts out:

E E Q E E Q E E E E E E E E 3x E E E E E E E E E
||--6---6--6---6--6---6-8-9-8-6----||-6---6--6---6--6---6----|
||o---9------9------9-----------9-o||---9------9------9------|
||---------------------------------||------------------------|
||---------------------------------||------------------------|
||o-------------------------------o||------------------------|
||---------------------------------||------------------------|

Should be fairly clean since I used powertab.

0 reply
rocker_rick wrote on September 11 2006, 04:52 am

hey gr8 tab mate

I want to post or [tab]
guest
You may want to rate the tab now too:
select rating
Please do not post tabs as comments. Select "correction" instead!