Oops, an error
Loading. Please wait.

Give It Up Bass Tab

version 2
version 2

Whole song

227 views 1 this week
no commentswrite comment
1 2 3 4 5
poor
x 1
add to favorites
launch autoscroll
font size
0
reset
guitar tuner
Tab Pro tools
  • play this tab
  • loop segment
  • change instrument
  • show fretboard
  • metronome
Autoscroll
slow
fast
+/-
esc
set tempo
stop
Tabbed By Maxwell
alastair_maxwell586@hotmail.com

My First Tab, Q+Q's to email above, cheers!

G --------------6-------------0-------|
D -8878-878-878--6-4434-431-02-2~2----|
A ------------------------------------|
E ------------------------------------|

G --------------6---------------111-3-|
D -8878-878-878--6-4434-431-431-------|
A ------------------------------------|
E ------------------------------------|

G ----------------------------------------|
D ----------44444444----------44444444----|
A -11111111----------11111111----------1~-|
E ----------------------------------------|

G -1h3p1---------------|
D -------4~--------3-1-|
A ---------------------|
E ---------------------|

G -------------------------------------------------|
D -------------------------------------------------|
A -11111111-----------11111111---------------------|
E ----------222222222----------22222222/4~-222~-4~-|


0:57
G ----------------------------------------------------|
D -8686-86-4~-----4~---6~-8686-86-4~-----4~---6~--8---|
A ------------6~-46---46-------------6~-46---46-------|
E ----------------------------------------------------|

G --------------6--|
D -8878-878-878--6-|
A -----------------|
E -----------------|

G ------------------------------------------|
D ---------------------------------44444444-|
A -11111111----------1111-44444444----------|
E ----------22222222------------------------|

G ----------------------------------------------|
D ----------------------------444444446-444~-6~-|
A -11111111----------11111111-------------------|
E ----------22222222----------------------------|

1:42
G ------------------------------------------------|
D -8686-86---------4~---6~-8686-86--------4~---6~-|
A ---------4~-6~-46---46----------4~-6~-46---46---|
E ------------------------------------------------|

G ---------------------------------------------|
D -8686-86---------4~---6~-8686-86------3~-----|
A ---------4~-6~-46---46----------4~-6~-----7/-|
E ---------------------------------------------|

piano part (don\'t play, unless you\'re bored)
G ---------------------------------------|
D -4~-6~-8~--4~-6~-8~--4~-6~-8~--4~-6~-x-|
A ---------------------------------------|
E ---------------------------------------|

G -------------------------------------|
D -------------------------------------|
A -1101-101-10134310-------------0001~-| x2
E -------------------212-212-212-------|

G -----------------------------------|
D -----------------------------------|
A --------------4---------------0001-| x4
E -6646-646-646--4-2212-212-212------|

G -----------------------|
D -----------------------|
A -----------------------| x2
E -666666664422222224444-

G ----------------|
D -8878-878-878~~-|
A ----------------|
E ----------------|
comments
We did not receive enough feedback on this tab! Please rate:
print report bad tab
1 2 3 4 5
I want to post or [tab]
guest
You may want to rate the tab now too:
select rating
Please do not post tabs as comments. Select "correction" instead!