Oops, an error
Loading. Please wait.

Help Me Sleep Tab

620 views 1 this week
1 commentread comment
1 2 3 4 5
please rate
add to favorites
launch autoscroll
font size
0
reset
how to read this tab
guitar tuner
Autoscroll
slow
fast
+/-
esc
set tempo
stop
Help us to improve Ultimate-Guitar.com Take our survey!
×
Author
-------------------------------------------------------
                             Help Me Sleep - Midtown
-------------------------------------------------------
11/30/08

Tabbed by: thelip285
Email: thelip285@aol.com

Tuning: standard 

I am missing some of the leads, but this is most of the song.


Intro & Verse. Palm mute it

e|---------------------------------------|
B|---------------------------------------|
G|---------------------------------------| x2 
D|-----4444---------4444---------6666----|
A|----------x6-----------x2-----------x2-|
E|-2222---------5555---------7777--------|


e|-----|
B|-----|
G|-4---| Let it ring for intro, verse play a few times 
A|-4---|
E|-2---|

1st Chorus

e|----------------------------------------------------|
B|----------------------------------------------------|
G|---------------------4------------------------------|
D|-4------7------2-----4-x8---------------------------|
A|-4-x16--7-x16--2-x8--2------------------------------|
E|-2------5------0------------------------------------|

2nd Chorus

e|-------------------------------------------------|
B|-------------------------------------------------|
G|---------------------4---------------------------| x2
D|-4------7------2-----4-x8------------------------|
A|-4-x16--7-x16--2-x8--2---------------------------|
E|-2------5------0---------------------------------|

“Make me forget…”

e|---------------|
B|---------------|
G|---------------| 
D|-----4444------|
A|-----------x2--|
E|-2222----------|

“…all.”                        “Cause I cannot…”

e|--------------------------------------------------|
B|--------------------------------------------------|
G|-------------4-----1----------7-----6-------------|
D|-4-----7-----4-----2-x5-------7-x5--6-x5----------|
A|-4-x5--7-x5--2-x5--2----------5-----4-------------|
E|-2-----5-----------0------------------------------|

“…more.”                       “Cause I cannot…”
 
e|--------------------------------------------------|
B|--------------------------------------------------|
G|-------------4-----1----------7-----6-------------|
D|-4-----7-----4-----2-x5-------7-x5--6-x5----------|
A|-4-x5--7-x5--2-x5--2----------5-----4-------------|
E|-2-----5-----------0------------------------------|

Bridge

e|-------------------------------------------------|
B|-------------------------------------------------|
G|---------------------4---------------------------| x2
D|-4---------7---------4---------------------------|
A|-4-x-many--7-x-many--2-x-many--------------------|
E|-2---------5-------------------------------------|

3rd Chorus

e|-----------------------------------|
B|-----------------------------------|
G|--------1--------------------------| 
D|-4--7---2--------------------------| 
A|-4--5---2--------------------------|
E|-2--5---0--------------------------|

e|-------------------------------------------------|
B|-------------------------------------------------|
G|---------------------4---------------------------| 
D|-4------7------2-----4-x8------------------------|
A|-4-x16--7-x16--2-x8--2---------------------------|
E|-2------5------0---------------------------------|

“…all.”                        “Cause I cannot…”

e|--------------------------------------------------|
B|--------------------------------------------------|
G|-------------4-----1----------7-----6-------------|
D|-4-----7-----4-----2-x5-------7-x5--6-x5----------|
A|-4-x5--7-x5--2-x5--2----------5-----4-------------|
E|-2-----5-----------0------------------------------|

“…more.”                       “Cause I cannot…”
 
e|--------------------------------------------------|
B|--------------------------------------------------|
G|-------------4-----1----------7-----6-------------|
D|-4-----7-----4-----2-x5-------7-x5--6-x5----------|
A|-4-x5--7-x5--2-x5--2----------5-----4-------------|
E|-2-----5-----------0------------------------------|
Suggest correction
Give kudos to tab author, rate the tab!
1 2 3 4 5
comments
print report bad tab
1 comment total.
0 reply
jackdude500 51 wrote on December 17 2011, 08:33 am

i think ive worked out the lead riff in the chorus its not perfect but its something like this
e|---------------------------
b|---------------------------
g|----------------4-2-2------
d|---------2-3-4-----4--4-2-4
a|-----2-4-------------------
e|-2-5-----------------------

guest
You may want to rate the tab now too:
select rating
Wanna post a correction for this tab? Suggest correction