Oops, an error
Loading. Please wait.

Hey Baby Dont You Know Were All Whores Tab

389 views 1 this week
no commentswrite comment
1 2 3 4 5
please rate
add to favorites
launch autoscroll
font size
0
reset
how to read this tab
guitar tuner
Tab Pro tools
  • play this tab
  • loop segment
  • change instrument
  • show fretboard
  • metronome
×
Best way to learn
"Hey Baby Dont You Know Were All Whores"
Autoscroll
slow
fast
+/-
esc
set tempo
stop
Contributor
Difficulty

Tabbed by: SynisterGates19
Email: jss_montgomery@yahoo.com

Tuning:E,a,d,g,b,e standard

                         intro: play this once on clean
e|---------------------------------------------------------------------------|
B|---------------------------------------------------------------------------|
G|---------------------------------------------------------------------------|
D|--9-9---7-7-7-7-7---9---7-7-7-7-7---9-9---7-7-7-7-7---9---7-7-7-7-7--------|
A|--9-9---7-7-7-7-7---9---7-7-7-7-7---9-9---7-7-7-7-7---9---7-7-7-7-7--------|
E|--7-7---5-5-5-5-5---7---5-5-5-5-5---7-7---5-5-5-5-5---7---5-5-5-5-5--------|
verse: its the same as the intro but with distortion and play it twice
e|---------------------------------------------------------------------------|
B|---------------------------------------------------------------------------|
G|---------------------------------------------------------------------------|
D|--9-9---7-7-7-7-7---9---7-7-7-7-7---9-9---7-7-7-7-7---9---7-7-7-7-7--------|
A|--9-9---7-7-7-7-7---9---7-7-7-7-7---9-9---7-7-7-7-7---9---7-7-7-7-7--------|
E|--7-7---5-5-5-5-5---7---5-5-5-5-5---7-7---5-5-5-5-5---7---5-5-5-5-5--------|

chorus:also played with distortion....
e|---------------------------------------------------------------------------|
B|-----------------------------------2-2h3------2-2h3------------------------|
G|-----------------------------------------3----------3----------------------|
D|--9-9---9-9-9---7-7---7-7-7-7--5-----------0-------------------------------|
A|--9-9---9-9-9---7-7---7-7-7-7--5-------------------------------------------|
E|--7-7---7-7-7---5-5---5-5-5-5--3-------------------------------------------|
          and the drama never ends.........


still the chorus....  let the last 2 chords ring before u go back into the verse
e|---------------------------------------------------------------------------|
B|---------------------------------------------------------------------------|
G|---------------------------------------------------------------------------|
D|---9-9---9-9-9---7-7--7-7-7-7----5---------5-------------------------------|
A|---9-9---9-9-9---7-7--7-7-7-7----5---------5-------------------------------|
E|---7-7---7-7-7---5-5--5-5-5-5----3---------3-------------------------------|


verse:  this is a lead part thats only played on the second verse
e|--12-----10------8------7--------------------------------------------------|
B|-----10------8-------6------5-7-5------------------------------------------|
G|----------------------------------7----------------------------------------|
D|---------------------------------------------------------------------------|
A|---------------------------------------------------------------------------|
E|---------------------------------------------------------------------------|
  jesus forgive my congregation

chorus: this is a lead part that you only play on the second chorus
e|------------------------------------------------------------------------------------------------|
B|---------------------------------------12-------------12----------------------------------------|
G|-----14--12h14------14-12h14p12-----14----14-11----14----14-11------14-14h12-----14-14h12p14----|
D|--12------------10---------------12-------------12--------------12------------10----------------|
A|------------------------------------------------------------------------------------------------|
E|------------------------------------------------------------------------------------------------|

transition to the bridge after the second chorus play it twice
e|---------------------------------------------------------------------------|
B|---------------------------------------------------------------------------|
G|--9-9-9-9-9-9-9-9-9-9-9-9-9-9---7-7-7-7-7-7-7-7-7-7-7-7-7-7-7--------------|
D|--x-x-x-x-x-x-x-x-x-x-x-x-x-x---x-x-x-x-x-x-x-x-x-x-x-x-x-x-x--------------|
A|--7-7-7-7-7-7-7-7-7-7-7-7-7-7---5-5-5-5-5-5-5-5-5-5-5-5-5-5-5--------------|
E|---------------------------------------------------------------------------|
bridge
e|---------------------------------------------------------------------------------|
B|---------------------------------------------------------------------------------|
G|-------------------9-9-9-----7-7-7-7-7-7-7-7-7-7-7-7-7-7-7-7--------------9-9-9--|
D|-9-7---9-9-9-9-9---9-9-9-----7-7-7-7-7-7-7-7-7-7-7-7-7-7-7-7--9-9-9-9-9---9-9-9--|
A|-9-7---9-9-9-9-9---7-7-7-----5-5-5-5-5-5-5-5-5-5-5-5-5-5-5-5--9-9-9-9-9---7-7-7--|
E|-7-5---7-7-7-7-7----------------------------------------------7-7-7-7-7----------|

ending
e|-12--12-------10----10-------8---8---7----------|
B|-------10---10--------8----8-------6---5h7-5----|
G|---------------------------------------------7--|
D|------------------------------------------------|
A|------------------------------------------------|
E|------------------------------------------------|
notice it has the same notes as the lead part for the second verse

I'm sure I tabbed the intro chorus and verse correctly but I'm not sure about the lead 
for the second corus so e-mail me at jss_montgomery@yahoo.com if you found a better way 
play it.

| /  slide up
| \  slide down
| h  hammer-on
| p  pull-off
| ~  vibrato
| +  harmonic
| x  Mute note
===============================================================================
comments
We did not receive enough feedback on this tab! Please rate:
print report bad tab
1 2 3 4 5
I want to post or [tab]
guest
You may want to rate the tab now too:
select rating
Please do not post tabs as comments. Select "correction" instead!