Oops, an error
Loading. Please wait.

Knew It All Along Tab

version 1
version 1

Acoustic

Whole song

Interactive

6,481 views 1 this week
3 commentsread comments
1 2 3 4 5
excellent!
x 7
add to favorites
launch autoscroll
font size
0
reset
how to read this tab
guitar tuner
Autoscroll
slow
fast
+/-
esc
set tempo
stop
Help us to improve Ultimate-Guitar.com Take our survey!
×
Difficulty
novice
e-12----12----12----12----12----12----12----12-------------------|
B----10----10----10----10----10----10----10----10----------------|  1X
G----------------------------------------------------------------|
D----------------------------------------------------------------|
A----------------------------------------------------------------|
E----------------------------------------------------------------|

                    (intro guitar one cont.)
e-12----12----12----12----9----9----10----10---------------------|
B----10----10----10----10---10---10----10----10------------------|  2X
G----------------------------------------------------------------|
D----------------------------------------------------------------|
A----------------------------------------------------------------|
E----------------------------------------------------------------|

                    (intro guitar two)
e-5-5-5-5--2-2-2-2--2-2-2-2--5-5-5-5-----------------------------|
B-5-5-5-5--2-2-2-2--2-2-2-2--5-5-5-5-----------------------------|  2X
G-5-5-5-5--4-4-4-4--2-2-2-2--7-7-7-7-----------------------------|
D-7-7-7-7--4-4-4-4--4-4-4-4--7-7-7-7-----------------------------|
A-7-7-7-7--2-2-2-2--4-4-4-4--5-5-5-5-----------------------------|
E-5-5-5-5-----------2-2-2-2--------------------------------------|

                    (verse both guitars)
e-5-5-5-5--2-2-2-2--2-2-2-2--5-5-5-5-----------------------------|
B-5-5-5-5--2-2-2-2--2-2-2-2--5-5-5-5-----------------------------|  2X
G-5-5-5-5--4-4-4-4--2-2-2-2--7-7-7-7-----------------------------|
D-7-7-7-7--4-4-4-4--4-4-4-4--7-7-7-7-----------------------------|
A-7-7-7-7--2-2-2-2--4-4-4-4--5-5-5-5-----------------------------|
E-5-5-5-5-----------2-2-2-2--------------------------------------|

                  (verse cont. both guitars)
e-5555555--2222222--2222222--5555555-----------------------------|
B-5555555--2222222--2222222--5555555-----------------------------|  2X
G-5555555--4444444--2222222--7777777-----------------------------|
D-7777777--4444444--4444444--7777777-----------------------------|
A-7777777--2222222--4444444--5555555-----------------------------|
E-5555555-----------2222222--------------------------------------|

                   (pre chorus both guitars)
e-2-2-2-2--0-0-0-0--5-5-------------------------------------------|
B-2-2-2-2--0-0-0-0--5-5--5--5-------------------------------------| 1X
G-2-2-2-2--0-0-0-0--7-7---77-776----------------------------------|
D-4-4-4-4--2-2-2-2--7-7-------------------------------------------|
A-4-4-4-4--2-2-2-2--5-5-------------------------------------------|
E-2-2-2-2--0-0-0-0------------------------------------------------|

                  (pre chorus cont. both guitars)
e-2-2-2-2--0-0-0-0--55555555--------------------------------------|
B-2-2-2-2--0-0-0-0--55555555--------------------------------------| 1X
G-2-2-2-2--0-0-0-0--77777777--------------------------------------|
D-4-4-4-4--2-2-2-2--77777777--------------------------------------|
A-4-4-4-4--2-2-2-2--55555555--------------------------------------|
E-2-2-2-2--0-0-0-0------------------------------------------------|

                        (chorus both guitars)
e-5-5--7-7--4-4--5-5--5-5--0-0--2-2--5-5--------------------------|
B-5-5--7-7--4-4--5-5--5-5--0-0--2-2--5-5--------------------------|
G-5-5--9-9--6-6--7-7--5-5--0-0--2-2--7-7--------------------------|
D-7-7--9-9--6-6--7-7--7-7--2-2--4-4--7-7--------------------------|
A-7-7--7-7--4-4--5-5--7-7--2-2--4-4--5-5--------------------------|
E-5-5-----------------5-5--0-0--2-2-------------------------------|

                   (chorus cont. both guitars)
e-5-5--7-7--4-4--5-5--5555--7777----------------------------------|
B-5-5--7-7--4-4--5-5--5555--7777----------------------------------| 1X
G-5-5--9-9--6-6--7-7--7777--9999----------------------------------|
D-7-7--9-9--6-6--7-7--7777--9997----------------------------------|
A-7-7--7-7--4-4--5-5--5555--7777----------------------------------|
E-5-5-------------------------------------------------------------|

                   (guitar two back to intro)

                     (intro #2 guitar one)
e-----------------------------------------------------------------|
B-----------------------------------------------------------------| 2X
G-1414141414141414---1414---1414-1414141414141414---1313---1313---|
D-----------------------------------------------------------------|
A-1212121212121212---1212---1212-1212121212121212---1111---1111---|
E-----------------------------------------------------------------|

             (both guitars back to verse and then chorus)

                               (bridge)
e-2-2-2-2--5-5-5-5--2-2-2-2--5-5-5-5--2-2-2-2--5-5-5-5--22222222--|
B-2-2-2-2--5-5-5-5--2-2-2-2--5-5-5-5--2-2-2-2--5-5-5-5--22222222--|
G-2-2-2-2--5-5-5-5--4-4-4-4--7-7-7-7--2-2-2-2--5-5-5-5--44444444--|
D-4-4-4-4--7-7-7-7--4-4-4-4--7-7-7-7--4-4-4-4--7-7-7-7--44444444--|
A-4-4-4-4--7-7-7-7--2-2-2-2--5-5-5-5--4-4-4-4--7-7-7-7--22222222--|
E-2-2-2-2--5-5-5-5--------------------2-2-2-2--5-5-5-5------------|

                              (bridge cont.)
e-55555555--22222222--55555555--22222222--55555555---------------|
B-55555555--22222222--55555555--22222222--55555555---------------| 1X
G-77777777--22222222--55555555--44444444--77777777---------------|
D-77777777--44444444--77777777--44444444--77777777---------------|
A-55555555--44444444--77777777--22222222--55555555---------------|
E-----------22222222--55555555-----------------------------------|

                              (break)
e-2-2-x-x--5-5-x--5-5-5-5--2-2-2-2-------------------------------|
B-2-2-x-x--5-5-x--5-5-5-5--2-2-2-2-------------------------------| 4X
G-2-2-x-x--5-5-x--7-7-7-7--4-4-4-4-------------------------------|
D-4-4-x-x--7-7-x--7-7-7-7--4-4-4-4-------------------------------|
A-4-4-x-x--7-7-x--5-5-5-5--2-2-2-2-------------------------------|
E-2-2-x-x--5-5-x-------------------------------------------------|
Suggest correction
comments
print report bad tab
3 comments total.
0 reply
mAFIa1039 32 wrote on August 17 2006, 01:09 pm

i think it sounds pretty good. but the chords sometimes get muted in this song and i dont think you show that unless i just missed it. i mean any body can figure that its muted but it'd be better if you showed where for others.

0 reply
Bair 2,206 wrote on January 29 2007, 10:27 am

Awesome job dude...never heard this song until i picked up Punk Goes Acoustic a bit ago.

0 reply
gnfnrs 10 wrote on October 10 2007, 12:45 am

I love punk goes accustic it is a awsome album and this is a awsome song but the best song on the album was swing life away good job on the tab man 5 stars

guest
You may want to rate the tab now too:
select rating
Please do not post tabs as comments. Select "correction" instead!