Oops, an error
Loading. Please wait.

Knew It All Along Bass Tab

version 1
version 1

Whole song

Interactive

228 views 1 this week
no commentswrite comment
1 2 3 4 5
3 more votes to show rating
add to favorites
launch autoscroll
font size
0
reset
guitar tuner
Autoscroll
slow
fast
+/-
esc
set tempo
stop
Help us to improve Ultimate-Guitar.com Take our survey!
×
Author
-----------------------------------------------------------------------
			     Knew it all along - Midtown
-----------------------------------------------------------------------

Tabbed By :Urmom26 
e-mail:madisonjd@vcu.edu 

Tuning:Standard

Easy fun distorted punk enjoy


Intro-Guitar, bass comes in at 0:05
             This part x2
G|---------|----------------------------------------------------------|
D|---------|----------------------------------------------------------|
A|---------|-------------------------555555---------------------------|
E|----17/5-|-55555555-7777777-22222222--------------------------------|

Verse x2                  after that x2
G|----------------------|---------------------------------------------|
D|----------------------|---------------------------------------------|
A|---------------5-5----|----------------------------55555555---------|
E|---5-5/7-7/2-2--------|-55555555-77777777-22222222------------------|

Pre chorus  
G|-------------------------|------------------------------------------|
D|-------------------------|------------------------------------------|
A|-------------------xx5xx5|--------5~-------5555555555555555---------|
E|-xxxx5-xxxx7-xxxx2-------|--2~-0~----2~-0~--------------------------|
Chorus
G|--------------------------------------------------------------------|
D|--------------------------------------------------------------------|
A|--------7777-4444-5555----------------5555------7777-4444-5555-
E|---5555----------------5555-0000-2222------5555---------------------|

G|--------------------------------------------------------------------|
D|--------------------------------------------------------------------|
A|222222-555555-------------------------------------------------------|
E|--------------------------------------------------------------------|

Second part of intro x2

Verse both parts only once
-break for a guitar part-
Pre-chorus without second part
chorus


Outtro        x2   on second time play
G|--------------------------------------------------------------------|
D|--------------------------------------------------------------------|
A|-----------22--55--------22222222-55555555--------------------------|
E|----22--55----------------------------------------------------------|



Outtro part 2                             x4 on fourth time end on A:2
G|-------------------------------------|------------------------------|
D|-------------------------------------|------------------------------|
A|--------------------22222222-55555555|-------22-55------------------|
E|--22222222-55555555------------------|-22-55------------------------|

| /  slide up
| \  slide down
| h  hammer-on
| p  pull-off
| ~  vibrato
| +  harmonic
| x  Mute note
=======================================================================
Suggest correction
Give kudos to tab author, rate the tab!
1 2 3 4 5
comments
print report bad tab
guest
You may want to rate the tab now too:
select rating
Wanna post a correction for this tab? Suggest correction