Oops, an error
Loading. Please wait.

Knew It All Along Tab

version 1
version 1

Intro

Whole song

Interactive

345 views 1 this week
3 commentsread comments
1 2 3 4 5
please rate
add to favorites
launch autoscroll
font size
0
reset
how to read this tab
guitar tuner
Tab Pro tools
  • play this tab
  • loop segment
  • change instrument
  • show fretboard
  • metronome
Autoscroll
slow
fast
+/-
esc
set tempo
stop
Contributor
*Intro*


Guitar 1:
       A              
e|--12--12----|
B|----10--10--|
G|------------|  repeat this 4x
D|------------|
A|------------|
E|------------|
                   

       B            repeat as needed
e|--12--12--12--12--------------------|-----10--10------|
B|----10--10--10--10--14--10--14--10--|-------10--10----|
G|------------------------------------|-----------------|
D|------------------------------------|-----------------|
A|------------------------------------|-----------------|
E|------------------------------------|-----------------|
                                             or
                                     |------------------|
                                     |--15--10--15--10--|
                                     |------------------|
                                     |------------------|
                                     |------------------|
                                     |------------------|


          ^^^^^^^^^^^^^^^^^^^^^^^^^^^^^^^^
Guitar 2: comes in on beginning of B above.

e|---------------------------------|
B|---------------------------------|
G|--2-2-2-2---4-4---6-6-6-6---7-7--|
D|--2-2-2-2---4-4---6-6-6-6---7-7--|
A|--0-0-0-0---2-2---4-4-4-4---5-5--|
E|---------------------------------|
    v v v ^   v v   v v v ^   v v
comments
We did not receive enough feedback on this tab! Please rate:
print report bad tab
1 2 3 4 5
3 comments total.
0 reply
Slightley Winde wrote on March 10 2004, 12:00 am

It's My first tab! lol

0 reply
Jackson0207 wrote on September 19 2004, 12:00 am

Not bad, thats almost exactly what i cam up with too. I have this tough...

|--12--12--12--12----9---9----10--10------|
B|----10--10--10--10--10--10-----10--10---|

I got it off the acoustic version

0 reply
Joshyboy wrote on July 27 2005, 12:00 am

the star bits ok but the chords are wrong unless the accoustic versions chords are different?? lol

I want to post or [tab]
guest
You may want to rate the tab now too:
select rating
Please do not post tabs as comments. Select "correction" instead!