Oops, an error
Loading. Please wait.

Knew It All Along Tab

version 2
version 2

Whole song

Interactive

1,675 views 3 this week
no commentswrite comment
1 2 3 4 5
excellent!
x 4
add to favorites
launch autoscroll
font size
0
reset
how to read this tab
guitar tuner
Autoscroll
slow
fast
+/-
esc
set tempo
stop
Help us to improve Ultimate-Guitar.com Take our survey!
×
Author
Song: Knew It All Along
Artist: Midtown
Album: Punk Goes Acoustic (2003)
Tabbed by: Eric M. ( rufioyc@hotmail.com )
Tunning: Standard

This is a simple acoustic song by Midtown off the Punk Goes Acoustic CD. 
This is the whole song in order. It's basicly only a tab for one guitar
but the song is played with two. If you like this song check out my
band Nobody Knew at www.nobodyknew.tk 


Intro: (x8)
e|-12-----|
B|----10--|
G|--------|
D|--------|
A|--------|
E|--------| then...

Intro: Guitar 2 (x2)
e|--12----12----12----12----9----9----10----10------|
B|-----10----10----10----10---10---10----10----10---|
G|--------------------------------------------------|
D|--------------------------------------------------|
A|--------------------------------------------------|
E|--------------------------------------------------|

Intro: Guitar 1 (0:06) (x2) 
e|-(0)------(0)---------------(0)-------|
B|--0--------0-----------------0--------|
G|--2--------4-----------------7--------|
D|--2--------4--------4--------7--------|
A|--0--------2--------4--------5--------|
E|--------------------2-----------------|

Verse: (x4) (3rd and 4rd time change strumming parttern)
e|--0--------0-----------------0--------|
B|--0--------0-----------------0--------|
G|--2--------4-----------------7--------|
D|--2--------4--------4--------7--------|
A|--0--------2--------4--------5--------|
E|--------------------2-----------------|

Pre-Chorus: (x1) 
e|-----------0--------0----|-----------0----0--------0----|
B|-----------0--------0----|-----------0----0--------0----|
G|-----------9--------7----|-----------1----9--------7----|
D|--4--------9--------7----|--4--------2-or-9--------7----|
A|--4--------7--------5----|--4--------2----7--------5----|
E|--2----------------------|--2--------0------------------|

Chorus: (x1)
e|-----0--0--0-----0-----0-----0--0--0--0----0----|
B|-----0--0--0-----0-----0-----0--0--0--0----0----|
G|-----9--6--7-----1-----7-----9--6--7--4----7----|
D|--7--9--6--7--7--2--4--7--7--9--6--7--4----7----|
A|--7--7--4--5--7--2--4--5--7--7--4--5--2----5----|
E|--5-----------5--0--2-----5---------------------|

Repeat Intro Guitar 1 (x2)
Repeat Verse  (x4)
Repeat Chorus (x1)

Bridge: (x3)
e|--------------------0--------0--------|
B|-----------0--------0--------0--------|
G|-----------2--------4--------7--------|
D|--4--------2--------4--------7--------|
A|--4--------0--------2--------5--------|
E|--2-----------------------------------|

Outro:(x3)
e|--------------0-0-0-0--0-0-0-0----|
B|--------------0-0-0-0--0-0-0-0----|
G|--------------7-7-7-7--4-4-4-4----|
D|--44xx--77xx--7-7-7-7--4-4-4-4----|
A|--44xx--77xx--5-5-5-5--2-2-2-2----|
E|--22xx--55xx----------------------|

e|--------------0~---|
B|--------------0~---|
G|--------------7~---|
D|--44xx--77xx--7~---|
A|--44xx--77xx--5~---|
E|--22xx--55xx-------|

you can say i knew it all along
that you were all i wanted
to know the pain has made you grow strong
the scars inside have made you beautiful
stop breathing for me
you said it's your right to shun dependence
and you shun
and you're scared to accept
someone to share your regrets
when you're aching
you go it alone
when you want to
you take what you need to make you whole
i know it's not easy
i know i can't feel through what you have been and trust
don't come easy
'cause to trust is to depend
and who wants to give up that part of them
you know you can have it
if you want to
i'll find you unrelated, cultivated
when you wake up incubated in me
you're free to leave
if you knew it all along

Well that's it! If you have any comments, corrections or questions
send me an email at rufioyc@hotmail.com thanks and enjoy!
Suggest correction
comments
print report bad tab
guest
You may want to rate the tab now too:
select rating
Please do not post tabs as comments. Select "correction" instead!