Oops, an error
Loading. Please wait.

Let Go Tab

1,058 views 1 this week
1 commentread comment
1 2 3 4 5
excellent!
x 5
add to favorites
launch autoscroll
font size
0
reset
how to read this tab
guitar tuner
Autoscroll
slow
fast
+/-
esc
set tempo
stop
Help us to improve Ultimate-Guitar.com Take our survey!
×
Author
Yeahh no one had a good version of  this so I took the time and
tabbed it out myself perfectly. This is definitely 110% correct,
enjoy it guys... Feel free to email me with any comments or
correctiions MarkyMark182@yahoo.com

Standard Tuning
Key
* - Palm Mute
X - Mute String
P - Pull Off
H - Hammer On
/ - Slide
~ - Let Ring

Intro (Clean)
Play this lightly (0:14-0:23)
E----------------------------------------------------------------------------|
B----------------------------------------------------------------------------|
G----------------------------------------------------------------------------|X3
D-7--------------------7-7-7-7-----6-6-6-6-----9-9-9-9-----2-2-2-2-----------|
A-7--Let it ring-------7-7-7-7-----6-6-6-6-----9-9-9-9-----2-2-2-2-----------|
E-5--------------------5-5-5-5-----4-4-4-4-----7-7-7-7-----0-0-0-0-----------|
                       * *         * *         * *         * *

(0:23-0:27)
E---------------------------------------------------------------------------|
B---------------------------------------------------------------------------|
G---------------------------------------------------------------------------|
D-7-7-7-7-----6-6-6-6-----------9-------------------------------------------|
A-7-7-7-7-----6-6-6-6-----------9----Let it ring----------------------------|
E-5-5-5-5-----4-4-4-4-----------7-------------------------------------------|
  * *         * *

Chorus (Distortion)
(0:27-0:33)
E---------------------------------------------------------------12-14-16-12-|
B---------------------------------------------------------------------------|
G---------4-4-xx--------------------9-9-9-9---4-4-4-4-----------------------|
D-2-2-xx--4-4-xx--4-4-4-4--7-7-7-7--9-9-9-9---4-4-4-4---4-4-4-4-------------|
A-2-2-xx--2-2-xx--4-4-4-4--7-7-7-7--7-7-7-7---2-2-2-2---4-4-4-4-------------|
E-0-0-xx----------2-2-2-2--5-5-5-5----------------------2-2-2-2-------------|

(0:33-0:40)
E----------------------------------------------------------------------------|
B----------------------------------------------------------------------------|
G---------4-4-xx---------------------6-6-6-6-6-6--4-4-4-4-4-4----------------|
D-2-2-xx--4-4-xx--4-4-4-4--7-7-7-7---6-6-6-6-6-6--4-4-4-4-4-4--7-------------|
A-2-2-xx--2-2-xx--4-4-4-4--7-7-7-7---4-4-4-4-4-4--2-2-2-2-2-2--7-------------|Let it ring
E-0-0-xx----------2-2-2-2--5-5-5-5-----------------------------5-------------|

Verse (Distorted)
(0:40-0:53)
E----------------------------------------------------------------------------|
B----------------------------------------------------------------------------|
G----------------------------------------------------------------------------| X4
D-7-7-7-7-----6-6-6-6-----9-9-9-9-----2-2-2-2--------------------------------|
A-7-7-7-7-----6-6-6-6-----9-9-9-9-----2-2-2-2--------------------------------|
E-5-5-5-5-----4-4-4-4-----7-7-7-7-----0-0-0-0--------------------------------|
  * *         * *         * *         * *

Pre Chorus (Distortion)
(0:53-0:56)
E---------------------------------------------------------------------------|
B---------------------------------------------------------------------------|
G---------------------------------------------------------------------------|
D-7-7-7-7----6-6-6-6----9-9-9-9----2-2-2-2----------------------------------|
A-7-7-7-7----6-6-6-6----9-9-9-9----2-2-2-2----------------------------------|
E-5-5-5-5----4-4-4-4----7-7-7-7----0-0-0-0----------------------------------|

(0:56-0:59)
E---------------------------------------------------------------------------|
B---------------------------------------------------------------------------|
G---------------------------------------------------------------------------|
D-7-7-7-7----6-6-6-6----9-9-9-9-9-9-9-9-------------------------------------|
A-7-7-7-7----6-6-6-6----9-9-9-9-9-9-9-9-------------------------------------|
E-5-5-5-5----4-4-4-4----7-7-7-7-7-7-7-7-------------------------------------|

Chorus (Distortion)
(0:59-1:06)
E--------------------------------------------------------------12-14-16-12--|
B---------------------------------------------------------------------------|
G----------4-4-xx------------9-9-9-9------------4-4-4-4---------------------|
D-2-2-xx---4-4-xx---4-4-4-4--7-7-7-7--9-9-9-9---4-4-4-4---4-4-4-4-----------|
A-2-2-xx---2-2-xx---4-4-4-4--7-7-7-7--7-7-7-7---2-2-2-2---4-4-4-4-----------|
E-0-0-xx------------2-2-2-2-----------5-5-5-5-------------2-2-2-2-----------|

(1:06-1:15)
E---------------------------------------------------------------------------|
B---------------------------------------------------------------------------|
G---------4-4-xx--------------------6-6-6-6-6-6--4-4-4-4-4-4----------------|
D-2-2-xx--4-4-xx--4-4-4-4--7-7-7-7--6-6-6-6-6-6--4-4-4-4-4-4--7-7-7-7-7-7-7-|
A-2-2-xx--2-2-xx--4-4-4-4--7-7-7-7--4-4-4-4-4-4--2-2-2-2-2-2--7-7-7-7-7-7-7-|
E-0-0-xx----------2-2-2-2--5-5-5-5----------------------------5-5-5-5-5-5-5-|

Solo
(1:15-1:30)
E---------------------------------------------------------------------------|
B-9-10-9-7----------------------9h10-12/10-9h10p9p7-------------------------|
G----------9-8-6-------------8h9--------------------9p8h9-11p9p8h9-8h9h11---|
D-----------------9~-9h11h13------------------------------------------------|
A---------------------------------------------------------------------------|
E---------------------------------------------------------------------------|

E------7h9p7---------------------------------------------------5-7/9p7------|
B-9h10------10p9p7-9----------------------------------------7-9-------9-10~-|
G--------------------9----------------------------------6-9-----------------|
D----------------------9---6h8h9-11p9p7-9h11h13-14p13p11--------------------|
A------------------------11-------------------------------------------------|
E---------------------------------------------------------------------------|

Guitar 2 (Distortion)
During Solo (1:15-1:25)
E----------------------------------------------------------------------------|
B----------------------------------------------------------------------------|
G----------------------------------------------------------------------------| X3
D-7-7-7-7----6-6-6-6----9-9----2-2-2-2---------------------------------------|
A-7-7-7-7----6-6-6-6----9-9----2-2-2-2---------------------------------------|
E-5-5-5-5----4-4-4-4----7-7----0-0-0-0---------------------------------------|

(1:25-1:30)
E---------------------------------------------------------------------------|
B---------------------------------------------------------------------------|
G---------------------------------------------------------------------------|
D-7-7-7-7----6-6-6-6----9-9-9-9-9-9-9-9-9-9---------------------------------|
A-7-7-7-7----6-6-6-6----9-9-9-9-9-9-9-9-9-9---------------------------------|
E-5-5-5-5----4-4-4-4----7-7-7-7-7-7-7-7-7-7---------------------------------|

Bridge (Clean)
(1:30-1:43)
E----------------------------------------------------------------------------|
B----------------------------------------------------------------------------|
G----------------------------------------------------------------------------|X4
D-7-7-7-7-----6-6-6-6-----9-9-9-9-----2-2-2-2--------------------------------|
A-7-7-7-7-----6-6-6-6-----9-9-9-9-----2-2-2-2--------------------------------|
E-5-5-5-5-----4-4-4-4-----7-7-7-7-----0-0-0-0--------------------------------|
  * *         * *         * *         * *

Verse (Distorted)
(1:43-1:49)
E----------------------------------------------------------------------------|
B----------------------------------------------------------------------------|
G----------------------------------------------------------------------------|X2
D-7-7-7-7-----6-6-6-6-----9-9-9-9-----2-2-2-2--------------------------------|
A-7-7-7-7-----6-6-6-6-----9-9-9-9-----2-2-2-2--------------------------------|
E-5-5-5-5-----4-4-4-4-----7-7-7-7-----0-0-0-0--------------------------------|
  * *         * *         * *         * *

Pre Chorus (Distortion)
(1:49-1:52)
E---------------------------------------------------------------------------|
B---------------------------------------------------------------------------|
G---------------------------------------------------------------------------|
D-7-7-7-7----6-6-6-6----9-9-9-9----2-2-2-2----------------------------------|
A-7-7-7-7----6-6-6-6----9-9-9-9----2-2-2-2----------------------------------|
E-5-5-5-5----4-4-4-4----7-7-7-7----0-0-0-0----------------------------------|

(1:52-1:58)
E---------------------------------------------------------------------------|
B---------------------------------------------------------------------------|
G---------------------------------------------------------------------------|
D-7-7-7-7----6-6-6-6----9-9-9-9-9-9-9-9-9-9---------------------------------|
A-7-7-7-7----6-6-6-6----9-9-9-9-9-9-9-9-9-9---------------------------------|
E-5-5-5-5----4-4-4-4----7-7-7-7-7-7-7-7-7-7---------------------------------|

(1:58-2:10)
E---------------------------------------------------------------------------|
B---------------------------------------------------------------------------|
G---------------------------------------------------------------------------|
D-2-2-----------2-2------------2---------------------2-2-2-2-2-2-2-2-2-2----|
A-2-2-----------2-2------------2--Let it ring--------2-2-2-2-2-2-2-2-2-2----|
E-0-0-----------0-0------------0---------------------0-0-0-0-0-0-0-0-0-0----|
                                                 * * * * * * * * * *

Chorus (Distortion)
(2:10-2:17)
E--------------------------------------------------------------12-14-16-12--|
B---------------------------------------------------------------------------|
G---------4-4-xx---------------------9-9-9-9--4-4-4-4-----------------------|
D-2-2-xx--4-4-xx--4-4-4-4---7-7-7-7--9-9-9-9--4-4-4-4--4-4-4-4--------------|
A-2-2-xx--2-2-xx--4-4-4-4---7-7-7-7--7-7-7-7--2-2-2-2--4-4-4-4--------------|
E-0-0-xx----------2-2-2-2---5-5-5-5--------------------2-2-2-2--------------|

(2:17-2:24)
E---------------------------------------------------------------------------|
B---------------------------------------------------------------------------|
G----------4-4-xx----------------------9-9-9-9--4-4-4-4---------------------|
D-2-2-xx---4-4-xx---4-4-4-4---7-7-7-7--9-9-9-9--4-4-4-4--4-4-4-4---7-7-7-7--|
A-2-2-xx---2-2-xx---4-4-4-4---7-7-7-7--7-7-7-7--2-2-2-2--4-4-4-4---7-7-7-7--|
E-0-0-xx------------2-2-2-2---5-5-5-5--------------------2-2-2-2---5-5-5-5--|

(2:24-2:55)
E----------------------------------------------------------------------------|
B----------------------------------------------------------------------------|
G-------------4-4-4-4--------------------------------------------------------| X8
D-2-2-2-2-----4-4-4-4-----4-4-4-4----7-7-7-7---------------------------------|
A-2-2-2-2-----2-2-2-2-----4-4-4-4----7-7-7-7---------------------------------|
E-0-0-0-0-----------------2-2-2-2----5-5-5-5---------------------------------|

Thats all people... hope you enjoyed it...
Suggest correction
comments
print report bad tab
1 comment total.
0 reply
Negativeone666 123 wrote on October 27 2008, 09:32 pm

Its basically perfect except (I don't mean to be nitpicky)the second half of the verse has some clean guitar going on in the background. For me, i improvise the same chords but picking the notes out on clean.

guest
You may want to rate the tab now too:
select rating
Please do not post tabs as comments. Select "correction" instead!