Oops, an error
Loading. Please wait.

Like A Movie Tab

version 1
version 1

Intro

Whole song

Interactive

1,261 views 1 this week
6 commentsread comments
1 2 3 4 5
please rate
add to favorites
launch autoscroll
font size
0
reset
how to read this tab
guitar tuner
Autoscroll
slow
fast
+/-
esc
set tempo
stop
Help us to improve Ultimate-Guitar.com Take our survey!
×
Artist-Midtown
Song-Like A Movie (intro)
Album-Save the World, Lose the Girl
Standard Tuning
Tabbed by-Tom
E-Mail-PunkRocker7658@netscape.net

Nobody has tabbed this before so I wanted to be the first one ever ;) lol.
This is my first tab ever so if it's wrong (which it isn't) don't go to hard on
me.

e---11-11--11--11-----|
b-------------8-------|
G-13-----13-----------|
D---------------------|
A---------------------|
E---------------------|

Just reapet that 4 times. It's really easy!E-mail me for any questions,
comments,corrections, or hate mail.
Suggest correction
Give kudos to tab author, rate the tab!
1 2 3 4 5
comments
print report bad tab
6 comments total. Showing first comments.
0 reply
dave2345 0 wrote on November 12 2002, 12:00 am

dude... 9-12-12-9-12-8-12

0 reply
drive-thrurocks 0 wrote on November 21 2002, 12:00 am

This is a little easier, don't have to go all the way down to 8:

e---11-11--11--11-----
b---------------------
G-13-----13--12------

0 reply
understated_kid 10 wrote on January 1 2003, 12:00 am

ok firstly that is right however the song itself is tuned down half a step...and considering that fact theres an even easier way to play it:
E---12-12--12--12--12-12--12--12
B-10-----10--9---10-----10--9---
G-------------------------------
D-------------------------------
A-------------------------------
E-------------------------------
ill have the rest tabbed out soon enough if u want to play the whole song

guest
You may want to rate the tab now too:
select rating
Please do not post tabs as comments. Select "correction" instead!