Oops, an error
Loading. Please wait.

Like A Movie Tab

version 1
version 1

Whole song

Interactive

1,891 views 3 this week
no commentswrite comment
1 2 3 4 5
2 more votes to show rating
add to favorites
launch autoscroll
font size
0
reset
how to read this tab
guitar tuner
Autoscroll
slow
fast
+/-
esc
set tempo
stop
Help us to improve Ultimate-Guitar.com Take our survey!
×
-------------------------------------------------------------------------------
                             Like A Movie - Midtown
-------------------------------------------------------------------------------

Tabbed by: Zero is Great man
Tuning: Half step down - Eb Ab Db Gb Bb eb

Gtr 1. Intro/Fill 1: [Clean]
eb|----14-14----14-14----14-14----14-14---------------------------------------|
Bb|-12-------12-------12-------12-------12------------------------------------|
Gb|---------------------------------------------------------------------------|
Db|---------------------------------------------------------------------------|
Ab|---------------------------------------------------------------------------|
Eb|---------------------------------------------------------------------------|

Gtr 2: Intro  [w/Distortion]
eb|---------------------------------------------------------------------------|
Bb|---------------------------------------------------------------------------|
Gb|-------------------------------------------------2-2-2---------------------|
Db|-------------------------------------------------2-2-2---------------------|
Ab|-------------------------------------------------0-0-0---------------------|
Eb|---------------------------------------------------------------------------|

Gtr 1: Chorus [w/Distortion]
"She tries to erase, shes tries to replace..."
eb|---------------------------------------------------------------------------|
Bb|--------9-9---11-11---7-7-7-7----------------------------------------------|
Gb|-8-8----9-9---11-11---7-7-7-7----------------------------------------------|
Db|-7-7----9-9---11-11---7-7-7-7----------------------------------------------|
Ab|-7-7----7-7----9--9---5-5-5-5----------------------------------------------|
eb|-5-5-----------------------------------------------------------------------|

Gtr 2: Chorus [w/Distortion]
eb|---------------------------------------------------------------------------|
Bb|---------------------------------------------------------------------------|
Gb|-2-2------------------7-7-7-7----2-2-----------7-7-------------------------|
Db|-2-2----2-2----4-4----7-7-7-7----2-2----2-2----7-7----2-2-2-2--------------|
Ab|-0-0----2-2----4-4----5-5-5-5----0-0----2-2----5-5----2-2-2-2--------------|
Eb|--------0-0----2-2----------------------0-0-----------0-0-0-0--------------|

Fill 2:
eb|----12----12----12----12----12----12----12----12----12----12----12----12-|
Bb|-12----12----12----12----12----12----12----12----12----12----12----12----|
Gb|-------------------------------------------------------------------------|
Db|-------------------------------------------------------------------------|
Ab|-------------------------------------------------------------------------|
Eb|-------------------------------------------------------------------------|

Gtr 1: Verse : [W/Some type of wierd piano effect]
"Tries to forget about living the good life" (play this way for only the 1st)
eb|---------------------------------------------------------------------------|
Bb|---------------------------------------------------------------------------|
Gb|---------------------------------------------------------------------------|
Db|-----------7----9--------------7-----9-------------------------------------|
Ab|-7----4----5----7----7----4----5-----7-------------------------------------|
Eb|-5----2--------------5----2------------------------------------------------|

Gtr 1: Verse: [Distortion]
"I woke up today around 6 in the morning.
eb|---------------------------------------------------------------------------|
Bb|---------------------------------------------------------------------------|
Gb|------------11---------7-7-7-7----9-9-9-9----------------------------------|
Db|-7-7-7-7----11---------7-7-7-7----9-9-9-9----------------------------------|
Ab|-7-7-7-7----9--(x4)----5-5-5-5----7-7-7-7----------------------------------|
Eb|-5-5-5-5-------------------------------------------------------------------|

Gtr 2: Verse [Distortion]
eb|---------------------------------------------------------------------------|
Bb|---------------------------------------------------------------------------|
Gb|-----------------------7-7-7-7---------------------------------------------|
Db|-7-7-7-7----4-4-4-4----7-7-7-7----2-2-2-2----------------------------------|
Ab|-7-7-7-7----4-4-4-4----5-5-5-5----2-2-2-2----------------------------------|
Eb|-5-5-5-5----2-2-2-2---------------0-0-0-0----------------------------------|

Gtr 1: "The reason her life did not turn out"
eb|---------------------------------------------------------------------------|
Bb|---------------------------------------------------------------------------|
Gb|-7-7-7-7-7----9-9-9-9-9----------------------------------------------------|
Db|-7-7-7-7-7----9-9-9-9-9----------------------------------------------------|
Ab|-5-5-5-5-5----7-7-7-7-7----------------------------------------------------|
Eb|---------------------------------------------------------------------------|

Gtr 2:
eb|---------------------------------------------------------------------------|
Bb|---------------------------------------------------------------------------|
Gb|-7-7-7-7-7-----------------------------------------------------------------|
Db|-7-7-7-7-7----2-2-2-2-2----------------------------------------------------|
Ab|-5-5-5-5-5----2-2-2-2-2----------------------------------------------------|
Eb|--------------0-0-0-0-0----------------------------------------------------|

Gtr 1: "More like a movie"
eb|---------------------------------------------------------------------------|
Bb|---------------------------------------------------------------------------|
Gb|-11-11-11-11----9-9-9-9----7-7-7-7----9-9-9-9------------------------------|
Db|--x--x--x--x----x-x-x-x----x-x-x-x----x-x-x-x------------------------------|
Ab|--9--9--9--9----7-7-7-7----5-5-5-5----7-7-7-7------------------------------|
Eb|---------------------------------------------------------------------------|

Gtr 2:
eb|---------------------------------------------------------------------------|
Bb|---------------------------------------------------------------------------|
Gb|---------------------------7-7-7-7-----------------------------------------|
Db|-4--4--4--4-----2-2-2-2----7-7-7-7----2-2-2-2------------------------------|
Ab|-4--4--4--4-----2-2-2-2----5-5-5-5----2-2-2-2------------------------------|
Eb|-2--2--2--2-----0-0-0-0---------------0-0-0-0------------------------------|

Gtr 1: Solo 1:
eb|----9-9-7-----------9-10-9-7---------9-9--7----12-12-7/9-10-9-10-9----|
Bb|-10-------10-9-7-10----------10-7-10--------10-15-15---------------10-|
Gb|----------------------------------------------------------------------|
Db|----------------------------------------------------------------------|
Ab|----------------------------------------------------------------------|
Eb|----------------------------------------------------------------------|

Gtr 1: Solo 1: (cont.)
eb|----9-9-7-----------9-10-9-7---------9-9--7----12-12-7/9-10-9-10-9----10-12-|
Bb|-10-------10-9-7-10----------10-7-10--------10-15-15---------------10-------|
Gb|----------------------------------------------------------------------------|
Db|----------------------------------------------------------------------------|
Ab|----------------------------------------------------------------------------|
Eb|----------------------------------------------------------------------------|

Gtr 1: "More like a movie" [w/Wah]
-------------------------------------->(Push up while playing)
eb|------------------------------------|
Bb|------------------------------------|
Gb|------------------------------------|
Db|------------------------------------|
Ab|-9-9-9-9--7-7-7-7--5-5-5-5--7-7-7-7-|
Eb|------------------------------------|

Gtr 2: Bridge: [w/Wah](I think the wah is down for the most part)
"I don't belive in anything but I belive in you."
eb|--------------------------------------------------------------------|
Bb|--------------------------------------------------------------------|
Gb|-2-2-2-2-2-2-2-2------------------------------------7-7-7-7-7-7-7-7-|
Db|-2-2-2-2-2-2-2-2--2-2-2-2-2-2-2-2--4-4-4-4-4-4-4-4--7-7-7-7-7-7-7-7-|
Ab|-0-0-0-0-0-0-0-0--2-2-2-2-2-2-2-2--4-4-4-4-4-4-4-4--5-5-5-5-5-5-5-5-|
Eb|------------------0-0-0-0-0-0-0-0--2-2-2-2-2-2-2-2------------------|

Gtr 2: "And if I fall away, someday you might find me" [w/Distortion]
eb|------------|
Bb|------------|
Gb|-2--------7-|
Db|-2--2--4--7-|
Ab|-0--2--4--5-|(x2)
Eb|----0--2----|

Gtr 2: "Someday" [w/Wah] (Wah is down)
eb|-----|
Bb|-----|
Gb|-----|
Db|-7-7-|
Ab|-5-5-|
Eb|-----|

Gtr 1: Solo 2: [w/Distortion]
eb|-x-x-x-x----------------------------------------------------------10-10-10-9----|
Bb|-x-x-x-x--12-12-12-10--------12-12-12-10-------12-12-12-10-------------------12-|
Gb|-x-x-x-x--------------9-9-9--------------9-9-9--------------9-9-9---------------|
Db|-x-x-x-x------------------------------------------------------------------------|
Ab|-x-x-x-x------------------------------------------------------------------------|
Eb|-x-x-x-x------------------------------------------------------------------------|

Gtr 1: Solo 2: (cont.)
eb|-----------------------------------------------------------7/9-10-9-10-9-10-9-|
Bb|----12-12-12-10--------12-12-12-10-------12-12-12-10--------------------------|
Gb|-9--------------9-9-9--------------9-9-9-------------9-9-9--------------------|
Db|------------------------------------------------------------------------------|
Ab|------------------------------------------------------------------------------|
Eb|------------------------------------------------------------------------------|

Outro: [w/Distortion]
Both Guitars  "...home"
eb|----|
Bb|----|
Gb|-2~-|
Db|-2~-|
Ab|-0~-|
Eb|----|


[Lyrics]

(Chorus)
She tries to erase,
She tries to replace,
How it feels, but I...,
Know she can never go home,
She tries to erase,
She tries to replace,
How it feels, but I...,
Know she can never go home,

(Verse 1)
Tried to forget about,
Living a good life,
Free of positions,
Make her feel vulnerable.
She's loved and she's lost,
She failed in the call,
She seeks to find the answer, now,

(Verse 2 + 3)
Woke up today around 6 in the morning,
Violently shaking, remembering what she once saw.
She bared it alone,
So she carried on,
She seeks to find the answers for...

(Pre-Chorus)
The reasons her life did not turn out...
More like a movie
She's trying to forget it all

(Bridge)
I don't believe in anything
But I believe in you
I never trusted anyone
But somehow I trust you
And if I fall away, someday you might find me
If I fall away, someday...

| /  slide up
| \  slide down
| h  hammer-on
| p  pull-off
| ~  vibrato
| +  harmonic
| x  Mute note

===============================================================================
Suggest correction
Give kudos to tab author, rate the tab!
1 2 3 4 5
comments
print report bad tab
guest
You may want to rate the tab now too:
select rating
Wanna post a correction for this tab? Suggest correction