Oops, an error
Loading. Please wait.

No Place Feels Like Home Tab

version 1
version 1

Whole song

2,245 views 1 this week
no commentswrite comment
1 2 3 4 5
x 4
add to favorites
launch autoscroll
font size
0
reset
how to read this tab
guitar tuner
Autoscroll
slow
fast
+/-
esc
set tempo
stop
Help us to improve Ultimate-Guitar.com Take our survey!
×
Author
TABBED BY SEAN R

THE NUMBER OF TIMES YOU PLAY EACH CHORD IS NOT TABBED OUT BUT YOU CAN FIGURE IT OUT IF YOU LISTEN TO THE SONG.


INTRO/VERSE(CLEAN)
E-------------------------------------------------------
B-------------------------------------------------------
G---9------9------9------9------9-----9-----9-----9-----
D-----9------9------9------9------9-----9-----9-----9---
A-7------9------6------7-----7--------------------------
E------------------------------9----9------7----7-----7-

LITTLE FILL THINGY(CLEAN) GUITAR 2
E-------5--4------------------------------
B-5--7-------7--5-4-5-5S7--5P4-5----------
G-----------------------------------------
D-----------------------------------------
A-----------------------------------------
E-----------------------------------------

LITTLE SOLO THINGY DURING THE VERSE(CLEAN) THIS ISN'T EXACTLY IT BUT ITS CLOSE
E---------------------------------------------------------
B------10P9----12P9---10P9-----------10P9---------9-10P9-9
G---9-9-----9-------9------9-9----------------------------
D------------------------------11-11-------11--9----------
A---------------------------------------------------------
E---------------------------------------------------------

RIFF BETWEEN VERSE AND CHORUS(CLEAN)
E-------------------------------------------------
B--10---------------------------------------------
G--9-------9----8-----9------------9---8---9------
D--7-----9---9-----9----9-9---9--9---9---9---9--9-
A--0--------------------------0-------------------
E-------------------------------------------------

CHORUS( * IS HARMONIC)(DISTORTION)
E-----------------------------------------------------------
B-----------------------------------------------------------
G-9--9--6--6*------------------9--9--6----------------------
D-9--9--6--6*---7---6---9--9---9--9--6--7--6--7--4----9-----
A-7--6--4--4*---7---7---9--9---7--6--4--7--7--7--4----9-----
E---------------5---4---7--7------------5--4--5--2----7-----
                          PM

PREVERSE 2(DISTORTION) X 2 THEN DO A PICKSLIDE
E-----------------------------------------------------------
B-----------------------------------------------------------
G----9------9------9------9--------9------9------9-----9----
D------9------9------9------9--------9------9------9-----9--
A--7------9------6------7-----7-----------------------------
E--------------------------------9------9------7-----7------

VERSE 2(RHYTHM IS NOT SHOWN)
E-----------------------------------------------------------
B-----------------------------------------------------------
G-----------------------------------------------------------
D--9-99--11--111111--8-88----9--99--9-----------------------
A--7-77--9---9-9-9---6-66----7--77--7--11--1111----9-99-9-9-
E--------------------------------------9---9-9-----7-77-7-7-
PM   --      -----     --       --         ---       --

INTERLUDE
E-----------------------------------------------------------
B-----------------------------------------------------------
G-----------------------6-----------------------------------
D-4--4S6--2-------------6--7--6--9--------------------------
A-4--4S6--2--PICKSLIDE--4--7--7--9--------------------------
E-2--2S4--0----------------5--4--7--------------------------

SOLO  THIS IS HOW I PLAY THE SOLO BUT I THINK THEY PLAY A DIFFERENT VARIATION OF THESE NOTES
THIS PART TWICE
E-----------------------------------------------------------
B-----------------------------------------------------------
G-----------------------------------------------------------
D-7-6-4-6-7-9-7-6-7-6--2S4-6-7-9-7-6--9-7-6-4---------------
A-----------------------------------------------------------
E-----------------------------------------------------------
THIS PART ONCE
E-----------------------------------------------------------
B-----------------------------------------------------------
G-----------------------------------------------------------
D--4-6-7--6-4-6-7--6-7P6--2S4-6-7-9-7-6-9-7-6---------------
A-----------------------------------------------------------
E-----------------------------------------------------------
THIS PART ONCE
E----------------------------------------------------------
B----------------------------------------------------------
G----------------------------------------------------------
D-4--6--7-6-4-6-7--6--7-9-9S11S9--7-6-7--9999--------------
A----------------------------------------9999--------------
E----------------------------------------7777--------------
                                        PM---
CHORDS PLAYED OVER SOLO GUITAR 2
E-------------------------------------
B-------------------------------------
G-------------------------------------
D--4----7---2---9---------------------
A--4----7---2---9---------------------
E--2----5---0---7---------------------

END WITH THE CHORUS
Suggest correction
comments
print report bad tab
guest
You may want to rate the tab now too:
select rating
Wanna post a correction for this tab? Suggest correction