Oops, an error
Loading. Please wait.

So Long As We Keep Our Bodies Numb Were Safe Tab

711 views 1 this week
1 commentread comment
1 2 3 4 5
please rate
add to favorites
launch autoscroll
font size
0
reset
how to read this tab
guitar tuner
Tab Pro tools
  • play this tab
  • loop segment
  • change instrument
  • show fretboard
  • metronome
Autoscroll
slow
fast
+/-
esc
set tempo
stop
Contributor
Difficulty
--------------------------------------------------------------------------------|    so 
as we keep our bodies numb we're safe - midtown
--------------------------------------------------------------------------------|
Tabbed by: SynisterGates19
Email: jss_montgomery@yahoo

Tuning: E,a,d,g,b,e(standard)
intro play this part 4 times and on the 4th time do it with out the open string cord
e|-------------------------------|
B|-------------------------------|
G|-6-6-6-6-6-6-6-6-6-6-6-6--0----|
D|-x-x-x-x-x-x-x-x-x-x-x-x--0----|
A|-4-4-4-4-4-4-4-4-4-4-4-4--0----|
E|-------------------------------|
still the intro play this part once
e|---------------------------------------------------------------------------|
B|---------------------------------------------------------------------------|
G|-6/9--6-6-6-6-6-6-6-6-6-6-6-6---6/9--6-6-6-6-6-6-6-6-6-6-6-6---------------|
D|-x-x--x-x-x-x-x-x-x-x-x-x-x-x---x-x--x-x-x-x-x-x-x-x-x-x-x-x---------------|
A|-4/7--4-4-4-4-4-4-4-4-4-4-4-4---4/7--4-4-4-4-4-4-4-4-4-4-4-4---------------|
E|---------------------------------------------------------------------------|
still the intro play this once
e|---------------------------------------------------------------------------|
B|---------------------------------------------------------------------------|
G|-6/9---8-8-8-8-8-8---4-4-4-4-4-4--0--6-------------------------------------|
D|-x-x---x-x-x-x-x-x---x-x-x-x-x-x--0--x-------------------------------------|
A|-4/7---6-6-6-6-6-6---2-2-2-2-2-2--0--4-------------------------------------|
E|---------------------------------------------------------------------------|

verse:play once
e|---------------------------------------------------------------------------|
B|---------------------------------------------------------------------------|
G|--6-6-6-6-6-6-6-6-6-6-6-6-6-6----------------------------------------------|
D|--6-6-6-6-6-6-6-6-6-6-6-6-6-6----7-7-7-7-7-7-7-7-7-7-7-7-7-7---------------|
A|--4-4-4-4-4-4-4-4-4-4-4-4-4-4----7-7-7-7-7-7-7-7-7-7-7-7-7-7---------------|
E|---------------------------------5-5-5-5-5-5-5-5-5-5-5-5-5-5---------------|
still the verse
e|-----------------------------------------------------------------------0---|
B|-------------------------------------------------------------------2h4---4-|
G|--4-4-4-4-4-4-4-4-4-4-4-4-4-4----------------------------------------------|
D|--4-4-4-4-4-4-4-4-4-4-4-4-4-4-----7-7-7-7-7-7-7-7-7-7-7-7-7-7--------------|
A|--2-2-2-2-2-2-2-2-2-2-2-2-2-2-----7-7-7-7-7-7-7-7-7-7-7-7-7-7--------------|
E|----------------------------------5-5-5-5-5-5-5-5-5-5-5-5-5-5--------------|
then u play the entire verse over again without the 2h4 0 4 part

pre-chorus: on all the notes you have to palm mute on you also have to scratch in other 
don't press the chord down all the way.
e|---------------------------------------------------------------------------|
B|---------------------------------------------------------------------------|
G|--6-6---------4-4--6-6-------4-4--------4-4--6-6----------------4-4--6-6---|
D|--6-6----7-7--4-4--6-6-------4-4---7-7--4-4--6-6-----7-7---7-7--4-4--6-6---|
A|--4-4----7-7--2-2--4-4-------2-2---7-7--2-2--4-4-----7-7---7-7--2-2--4-4---|
E|---------5-5-----------------------5-5---------------5-5---5-5-------------|
           ..............            ...............         .............

still the pre-chorus and you still have to scratch
e|---------------------------------------------------------------------------|
B|---------------------------------------------------------------------------|
G|-----------4-4--6-6---6-6---------4-4--6-6---4-4---------4-4--6-6----------|
D|-7-7--7-7--4-4--6-6---6-6----7-7--4-4--6-6---4-4----7-7--4-4--6-6---7-7----|
A|-7-7--7-7--2-2--4-4---4-4----7-7--2-2--4-4---2-2----7-7--2-2--4-4---7-7----|
E|-5-5--5-5--------------------5-5--------------------5-5-------------5-5----|
        .............          .............          ..............
last part of the pre-chours
e|---------------------------------------------------------------------------|
B|---------------------------------------------------------------------------|
G|---------------------------------------------------------------------------|
D|--7-7-7---7-7---7-7-7---7-7---7-7-7---7-7----------------------------------|
A|--7-7-7---7-7---7-7-7---7-7---7-7-7---7-7----------------------------------|
E|--5-5-5---5-5---5-5-5---5-5---5-5-5---5-5----------------------------------|
    .....         .....         .....

chorus: play this part once
e|---------------------------------------------------------------------------|
B|---------------------------------------------------------------------------|
G|-6-6-6-6-6--4-4-4-4-4--------------------------6-6-6-6-6--4-4-4-4-4--------|
D|-6-6-6-6-6--4-4-4-4-4---7-7-7-7-7-7-7-7-7-7----6-6-6-6-6--4-4-4-4-4--------|
A|-4-4-4-4-4--2-2-2-2-2---7-7-7-7-7-7-7-7-7-7----4-4-4-4-4--2-2-2-2-2--------|
E|------------------------5-5-5-5-5-5-5-5-5-5--------------------------------|

chorus: play this part once
e|---------------------------------------------------------------------------|
B|---------------------------------------------------------------------------|
G|---------------------------------------------------------------------------|
D|--7-7-7-7-7-7-7-7-7-7------------------------------------------------------|
A|--7-7-7-7-7-7-7-7-7-7------------------------------------------------------|
E|--5-5-5-5-5-5-5-5-5-5------------------------------------------------------|

chorus lead part: play this after every chorus when our done with the power chord part 
go into this lead play it twice
e|-----0-------0------0-------0------0-------0-------0------0----------------|
B|--2------4-------4------4------4------2--------2------2------2-------------|
G|---------------------------------------------------------------------------|
D|---------------------------------------------------------------------------|
A|---------------------------------------------------------------------------|
E|---------------------------------------------------------------------------|

trasition into second verse: play it with phaser effect
e|---------------------------------------------------------------------------|
B|---------------------------------------------------------------------------|
G|-----6-6-6-6-6-6-6-6-6-6-6-6-6-6-6-6-6-6-6-6-6-6-6-6-6-6-6-6-6-6-----------|
D|-----x-x-x-x-x-x-x-x-x-x-x-x-x-x-x-x-x-x-x-x-x-x-x-x-x-x-x-x-x-x-----------|
A|-----4-4-4-4-4-4-4-4-4-4-4-4-4-4-4-4-4-4-4-4-4-4-4-4-4-4-4-4-4-4-----------|
E|---------------------------------------------------------------------------|
       you play the verse after this but I'm tabbing it again lol

second pre-chorus: it's different than the first pre-chorus play this twice
e|----------0-------------0--------------------------------------------------|
B|-------------4-------------4-----------------------------------------------|
G|---6-6-----------4-4-------------------------------------------------------|
D|---6-6-----------4-4-------------7-7---7---7-7---7-------------------------|
A|---4-4-----------2-2-------------7-7---7---7-7---7-------------------------|
E|---------------------------------5-5---5---5-5---5-------------------------|
     After this go into the chorus and then their is literally a 10 minute bridge that
mainly piano and vocals so I'm just not gonna tab it.


| /  slide up
| \  slide down
| h  hammer-on
| p  pull-off
| ~  vibrato
| +  harmonic
| x  Mute note
===============================================================================
comments
We did not receive enough feedback on this tab! Please rate:
print report bad tab
1 2 3 4 5
1 comment total.
0 reply
cobra_disco wrote on January 26 2009, 07:13 pm

instead of an open cord on the beginning it should be 997

I want to post or [tab]
guest
You may want to rate the tab now too:
select rating
Please do not post tabs as comments. Select "correction" instead!