Oops, an error
Loading. Please wait.

To Our Savior Tab

475 views 1 this week
no commentswrite comment
1 2 3 4 5
please rate
add to favorites
launch autoscroll
font size
0
reset
how to read this tab
guitar tuner
Tab Pro tools
  • play this tab
  • loop segment
  • change instrument
  • show fretboard
  • metronome
×
Best way to learn
"To Our Savior"
Autoscroll
slow
fast
+/-
esc
set tempo
stop
Contributor
Song: To Our Savior
By: Midtown
Album: Forget What You Know

x = mute
~ = let ring
h = hammer on
p = pull off
b = bend
r = return


Intro 1:
|-------------------------------------------------------------------|
|-------------------------------------------------------------------|
|-------------------------------------------------------------------|
|--6~~~~~~~~~~~~~~~~~-----------------------------------------------|
|--6~~~~~~~~~~~~~~~~~-----------------------------------------------|
|--4~~~~~~~~~~~~~~~~~-----------------------------------------------|

Intro 2:
|-------------------------------------------------------------------|
|--999999999777755544-----------------------------------------------|
|-------------------------------------------------------------------|
|-------------------------------------------------------------------|
|-------------------------------------------------------------------|
|-------------------------------------------------------------------|

Riff 1a:
|-------------------------------------------------------------------|
|-------------------------------------------------------------------|
|--66666-999-1111111111-999--66666-999-1111111111-999---------------|
|--66666-999-1111111111-999--66666-999-1111111111-999---------------|
|--44444-777-9-9-9-9-9--777--44444-777-9-9-9-9-9--777---------------|
|-------------------------------------------------------------------|

Riff 1b:
|-------------------------------------------------------------------|
|--5555--9999-7777-5544-5555-9999-7777-554h5p4----------------------|
|-------------------------------------------------------------------|
|-------------------------------------------------------------------|
|-------------------------------------------------------------------|
|-------------------------------------------------------------------|

First Verse:
|-------------------------------------------------------------------|
|-------------------------------------------------------------------|
|--66666-9~--66666-9~--66666-9~-------------------------------------|
|--66666-9~--66666-9~--66666-9~--99999-7777-------------------------|
|--44444-7~--44444-7~--44444-7~--99999-7777-------------------------|
|--------------------------------77777-5555-------------------------|

Chorus 1:
|---------------------------------------------------------------------------|
|---------------------------------------------------------------------------|
|--6-----4-----------6--9--6--9--6--9---6-----4-----------------------------|
|--6-x8--4-x8--4-----6--9--6--9--6--9---6-x8--4-x8--44444-7~~~~-44444-7~~~~-|
|--4-----2-----4-x8--4--7--4--7--4--7---4-----2-----44444-7~~~~-44444-7~~~~-|
|--------------2------------------------------------22222-5~~~~-22222-5~~~~-|

Chorus 2:
|-----------------------9-----9-------------------------------------|
|--------------------7h8---7h8---7h8~-------------------------------|
|-------------------------------------------------------------------|
|-------------------------------------------------------------------|
|-------------------------------------------------------------------|
|-------------------------------------------------------------------|

Second Verse 1:
                |"cry again"| "never understand"
|---------------|-----------|-----------------------|
|---------------|-----------|-----------------------|
|--66666-6~~~~--|-----------|-----------------------|
|--66666-6~~~~--|-----------|--99999-777------------|
|--44444-4~~~~--|-----------|--99999-777------------|
|---------------|-----------|--77777-555------------|

Second Verse 2a:
|-------------------------------------------------------------------|
|-------------------------------------------------------------------|
|--66666-999~--66666-999~--66666-999~-------------------------------|
|--66666-999~--66666-999~--66666-999~--99999-7777-------------------|
|--44444-777~--44444-777~--44444-777~--99999-7777-------------------|
|--------------------------------------77777-5555-------------------|

Second Verse 2b:
|-------------9-----------------------9-----------------------------|
|----------7h8---------5h6h7p6p5---7h8------------------------------|
|-------------------------------------------------------------------|
|-------------------------------------------------------------------|
|-------------------------------------------------------------------|
|-------------------------------------------------------------------|

Solo 1:
|-------------------------------------------------------------------|
|-------------------------------------------------------------------|
|-------5br-----4br---------5br-----4br---------5br-----4br---------|
|--5h6p5---5h6p5---6p5-5h6p5---5h6p5---5h6-5h6p5---5h6p5---6p5------|
|-------------------------------------------------------------------|
|-------------------------------------------------------------------|

|-------------------------------------------------------------------|
|-------------------------------------------------------------------|
|-------------------------------------------------------------------|
|-------5br-----4br-xx----------------------------------------------|
|--5h6p5---5h6p5----xx----------------------------------------------|
|-------------------------------------------------------------------|

Solo 2:
|-------9-----9-----------9-----9-----------9-----9-----------------|
|--7h8p7-7h8p7-7h8b--7h8p7-7h8p7-7h8b--7h8p7-7h8p7-7h8b-------------|
|-------------------------------------------------------------------|
|-------------------------------------------------------------------|
|-------------------------------------------------------------------|
|-------------------------------------------------------------------|

|------9------------------------------------------------------------|
|-7h8p7-7h8p7-7h8p7-7h8p7-7h8b--------------------------------------|
|-------------------------------------------------------------------|
|-------------------------------------------------------------------|
|-------------------------------------------------------------------|
|-------------------------------------------------------------------|

Interlude:
|-------------------------------------------------------------------|
|-------------------------------------------------------------------|
|-66666-9~~~~--66666-9~~~~--66666-9~~~~--66666-9~~~~----------------|
|-66666-9~~~~--66666-9~~~~--66666-9~~~~--66666-9~~~~----------------|
|-44444-7~~~~--44444-7~~~~--44444-7~~~~--44444-7~~~~----------------|
|-------------------------------------------------------------------|

Outro:
|-------------7---------------7---------------7---------------------|
|--5h79p7h9p75-979-5h79p7h9p75-979-5h79p7h9p75-97-------------------|
|-------------------------------------------------------------------|
|-------------------------------------------------------------------|
|-------------------------------------------------------------------|
|-------------------------------------------------------------------|

End:
|-------------------------------------------------------------------|
|-------------------------------------------------------------------|
|--666666-9~~~~-----------------------------------------------------|
|--666666-9~~~~-----------------------------------------------------|
|--444444-7~~~~-----------------------------------------------------|
|-------------------------------------------------------------------|

Order:
Intro 1 (x2) and Intro 2 (x2)
Riff 1a (x1) and Riff 1b (x1)
First Verse (x2)
Chorus 1 (x1) and Chorus 2 (x1)
Second Verse 1 (x1)
Second Verse 2a (x1) and Second Verse 2b (x1)
Chorus 1 (x1) and Chorus 2 (x1)
Solo 1 (x1)
Solo 1 (x1) and Solo 2 (x1)
Solo 1 (x1)
Intro 2 (x4)
Interlude (x1) and Riff 1b (x1)
Outro (x1)
End (x1)
comments
We did not receive enough feedback on this tab! Please rate:
print report bad tab
1 2 3 4 5
I want to post or [tab]
guest
You may want to rate the tab now too:
select rating
Please do not post tabs as comments. Select "correction" instead!