Oops, an error
Loading. Please wait.

Until It Kills Tab

653 views 1 this week
no commentswrite comment
1 2 3 4 5
2 more votes to show rating
add to favorites
launch autoscroll
font size
0
reset
how to read this tab
guitar tuner
Autoscroll
slow
fast
+/-
esc
set tempo
stop
Help us to improve Ultimate-Guitar.com Take our survey!
×
Author
Band : Midtown
Song : Until It Kills
Album: Forget What You Know
Tabbed By: Calum (afirock74@hotmail.com)

Standard Tunning

x   - Palm Mute
b   - Bend
b~  - Bend Up Then Down
h   - Hammer-On Directly After Note Before
p   - Pull Off
~   - ring out

Use your thumb to hold down the 1 on the E string for the F Chord

Intro:
e|---------------0~-----------------------0----|
B|--1~-----1~----1~---1~----1~----1~-----1-----|
G|--0~-----2~----2~---------0~----2~----2------|
D|--0~-----2~----3~---------0~----2~-----------|
A|--2~-----0~----3~---------2~----0~-----------|
E|--3~-----------1~---------3~---------1-------|

Verse:
e|-3-3-3-3-3-3-3-3-3-3---8--8--8--8--8--8--8--8--8--8-------|
B|-6-6-6-6-6-6-6-6-6-6---8--8--8--8--8--8--8--8--8--8-------|
G|-5-5-5-5-5-5-5-5-5-5---9--9--9--9--9--9--9--9--9--9-------|
D|-3-3-3-3-3-3-3-3-3-3---10-10-10-10-10-10-10-10-10-10------|
A|-----------------------10-10-10-10-10-10-10-10-10-10------|
E|-----------------------8--8--8--8--8--8--8--8--8--8-------|

Pre-Chorus 2x
e|-3---0---0----|
B|-3---1---1----|
G|-4---2---2----|
D|-5---2---3----|
A|-5---0---3----|
E|-3-------1----|

Chorus Guitar 1:
e|-3-3-3-3-3-3-3-3-3-3---8--8--8--8--8--8--8--8--8--8-------|
B|-6-6-6-6-6-6-6-6-6-6---8--8--8--8--8--8--8--8--8--8-------|
G|-5-5-5-5-5-5-5-5-5-5---9--9--9--9--9--9--9--9--9--9-------|
D|-3-3-3-3-3-3-3-3-3-3---10-10-10-10-10-10-10-10-10-10------|
A|-----------------------10-10-10-10-10-10-10-10-10-10------|
E|-----------------------8--8--8--8--8--8--8--8--8--8-------|


Chorus Guitar 2:
e|-15-15-15-15-15-12-12-12-12-12--------------------------------|
B|-x--x--x--x--x--x--x--x--x--x--15-15-15-15-15-13-13-13-13-13--|
G|-12-12-12-12-12-12-12-12-12-12-12-12-12-12-12-12-12-12-12-12--|
D|--------------------------------------------------------------|
A|--------------------------------------------------------------|
E|--------------------------------------------------------------|

Outro Part 1:
e|----------------------------------------------------------------------------------|
B|-------------13-13-13-13-------------13-13-13p12----------------------------------|
G|-10-10-10-10-------------10-10-10-10--------------9h10-10-9h10-10h12-12--10-10p9--|
D|----------------------------------------------------------------------------------|
A|----------------------------------------------------------------------------------|
E|----------------------------------------------------------------------------------|

Outro Part 2
e|--------------------|
B|--------------------|
G|-10-10p9--7-7p5-5---|
D|--------------------|
A|--------------------|
E|--------------------|
Suggest correction
Give kudos to tab author, rate the tab!
1 2 3 4 5
comments
print report bad tab
guest
You may want to rate the tab now too:
select rating
Wanna post a correction for this tab? Suggest correction