Oops, an error
Loading. Please wait.

Waiting For The News Tab

928 views 1 this week
no commentswrite comment
1 2 3 4 5
please rate
add to favorites
launch autoscroll
font size
0
reset
how to read this tab
guitar tuner
Autoscroll
slow
fast
+/-
esc
set tempo
stop
Help us to improve Ultimate-Guitar.com Take our survey!
×
Author
-------------------------------------------------------------------------------
                             SONG NAME - Band Name
-------------------------------------------------------------------------------
Tabbed by: Randy 'Mep' Mershon
Email:mep@nugod.net

Tuning: Standard (EADGBe)

Intro: Piano, vocals, then bass

Guitar comes in on "well yeah, don't you know it's true son"
Verse Riff 1
e|-----------------------------------------|
B|-----------------------------------------|
G|-4-4-3-4-4-4-4-4-3-4-4-4-3-4-6-6-6-4-4-4-|
D|-4-4-4-4-4-4-4-4-4-4-4-4-4-4-4-4-4-4-4-4-|
A|-2-2-2-2-2-2-2-2-2-2-4-4-4-4-4-4-4-4-4-4-|
E|-----------------------------------------| x2

Verse Riff 2 (Strummed)
e|---------------------------|
B|---------------------------|
G|-4-------6-------4---------|
D|-4---4---6---2---4---4---2-|
A|-2---4---4---2---2---4---2-|
E|-----2-------0-------2---0-|

Chorus (Strummed)
e|--------------------|
B|--------------------|
G|-4-------4----------|
D|-4-------4-------2--|
A|-2-------4-------2--|
E|-----------------0--| x2

Break
e|----------------|
B|----------------|
G|-4-----4--------|
D|-4--2--4--2-2-2-|
A|-2--2--2--2-2-2-|
E|----0-----0-0-0-|

Verse Riff 1 x2

Verse Riff 2

Chorus x2

Verse Riff 1 x2

Verse Riff 3 (Strummed)
e|---------------|
B|---------------|
G|-4-------4/6/4-|
D|-4---4---x/x/x-|
A|-2---4---2/4/2-|
E|-----2---------| x4

Chorus x3

Outro (Strummed)
e|-----------|
B|-----------|
G|-4-------4-|
D|-4---4---4-|
A|-2---4---2-|
E|-----2-----|

| /  slide up
| \  slide down
| h  hammer-on
| p  pull-off
| ~  vibrato
| +  harmonic
| x  Mute note
===============================================================================
Suggest correction
Give kudos to tab author, rate the tab!
1 2 3 4 5
comments
print report bad tab
guest
You may want to rate the tab now too:
select rating
Wanna post a correction for this tab? Suggest correction