Oops, an error
Loading. Please wait.

Agradecido Tab

672 views 3 this week
no commentswrite comment
1 2 3 4 5
2 more votes to show rating
add to favorites
launch autoscroll
font size
0
reset
how to read this tab
guitar tuner
×
Best way to learn
"Agradecido"
Autoscroll
slow
fast
+/-
esc
set tempo
stop
Intro:

0-0:14s
E --------
B -2/13---
G -1/12---
D --------


    C#     G#    D#    Bb     C#
E ------------ACORDES-------------
B --------------------------------
G --5------------8-----3------5---
D ---------6----------------------
A --3------------6-----1------3---
E ---------4----------------------

PRIMER VERSO: Me has perdonado me rescatase..
E ----------------------
B -8-8-9-9-8--8-8-6-6-8-
G ----------------------


AGRADECIDO:
E ---8-6---------------
B -------9-8-----------
G -5---------6-7-8-7-5-

SOLO:
E -5/11-10----------------11/13-11-10-18-20---
B --------13-11-8-15--------------------------
G --------------------------------------------


Bendicones aquí les dejo la tablatura de la canción agradecido
De miel san marcos? espero que sea de mucha bendición.
Cualquier comentario o duda aki les dejo mi correo:
Cesgar_ki@
Un saludo grande a mis hermanos de la iglesia
Segadores de vida eterna, col la paz la lima.
Suggest correction
Give kudos to tab author, rate the tab!
1 2 3 4 5
comments
print report bad tab
guest
You may want to rate the tab now too:
select rating
Wanna post a correction for this tab? Suggest correction