Oops, an error
Loading. Please wait.

Canto, Danzo, Salto Bass Tab

218 views 1 this week
no commentswrite comment
1 2 3 4 5
3 more votes to show rating
add to favorites
launch autoscroll
font size
0
reset
guitar tuner
Autoscroll
slow
fast
+/-
esc
set tempo
stop
Help us to improve Ultimate-Guitar.com Take our survey!
×
DIOS LES BENDIGA

Les dejo tambien la intro en el bajo
para que toquen esta alabanza

Esta facil la intro solo hay que oir los tiempos


SON LAS NOTAS ORIGINALES

Cualquier duda escribanme a walterj33-3@

visiten


estarè subiendo un video de la intro

GUATEMALA 17 ENERO DE 2011


CANTO, DANZO, SALTOE


sto va 2 veces
G------------------------------
D----------------1-3-----------
A---1-1------1-3---------------
E--------3---------------------


Después va esto una vez
G----------------------------5-3--
D----------------1-3---5-5--------
A---1-1------1-3------------------
E--------3------------------------


Luego va esto hasta el final de la INTRO que dice Cristo

G---------------------------------------
D-------------3-5--3--------------------
A---1-1----3---------5------------------
E---------------------------------------
Suggest correction
Give kudos to tab author, rate the tab!
1 2 3 4 5
comments
print report bad tab
guest
You may want to rate the tab now too:
select rating
Wanna post a correction for this tab? Suggest correction